merima njegomir - pamtim jos (dopunjen rad)

Poslao: Johnny035 | Komentara: 1 | Glasova: 0 | Ocjena: x | Print
Merima Njegomir - Pamtim Jos
Transkripcija: Dabetic & Johnny035
22.10.2014.
Home: 2akordi.net

A|lbum: "Pamtim jos" (1994.) - PGP-RTS
Muzika, tekst & aranzman: Misa Markovic
YT: https://www.youtube.com/watch?v=_yfBPMYAjhY

Uvod:
  F#            G#m      F#            H
  ___      ___           ___      ___
E|6-7-6--------|--------|7-9-7----6-4-|6--------|
H|---------9-7-|9-------|-------------|---------|
G|-------------|--------|-------------|---------|
D|-------------|--------|-------------|---------|
A|-------------|--------|-------------|---------|
E|-------------|--------|-------------|---------|

  F#            G#m      F#  G#m B7     D#m
                                 _____
  ___      ____                    ___
E|6-7-6--------|--------|--------6-----|---------|
H|---------9-7-|9-------|7----9----7-6-|---------|
G|-------------|--------|--------------|8--------|
D|-------------|--------|--------------|---------|
A|-------------|--------|--------------|---------|
E|-------------|--------|--------------|---------|

D#m
Prolazi moja mladost,
F#
dolaze druga vremena. __________
G#m              B              |
Ono sto je nekad bilo,          |
F#        B7   D#m  D#7 (D#m)   | (2x)
toga sada vise nema.  __________|

Ref.(2x)
    F# B7  D#m
Ali pamtim jos:
    F#
one livade, one reke,
     G#m
one sume i puteljke,
      D#m
staru majku sto se smeje
  C#       B7     D#m
i ognjiste dok me greje.

Sada imam sto sam htela,
o cemu sam nekad snila.
Trebalo bi da sam srecna,
a ja sam to nekad bila.

Ref.(2x)
Ali pamtim jos:
one livade, one reke,
one sume i puteljke,
staru majku sto se smeje
i ognjiste dok me greje.

Dosli su novi dani,
drugim se zivotom zivi.
U|zela sam sto sam htela,
drugi mi nisu krivi.

Ref.(2x)
Ali pamtim jos:
one livade, one reke,
one sume i puteljke,
staru majku sto se smeje
i ognjiste dok me greje.

Kraj:
  F#            G#m      F#  G#m B7     D#m
                                 _____
  ___      ____                    ___
E|6-7-6--------|--------|--------6-----|---------|
H|---------9-7-|9-------|7----9----7-6-|---------|
G|-------------|--------|--------------|8--------|
D|-------------|--------|--------------|---------|
A|-------------|--------|--------------|---------|
E|-------------|--------|--------------|---------|
 Komentari:
Poslao :: Johnny035
Malo sam ispravio DabetiŠev rad i dodao tabalture.
Poslao: Johnny035 | Komentara: 1 | Glasova: 0 | Ocjena: x | Print