zoran kalezic - kotrlja se zivot

Poslao: Johnny035 | Komentara: 0 | Glasova: 0 | Ocjena: x | Print
Zoran Kalezic  Kotrlja Se Zivot
Transkripcija: Johnny035
09.02.2011.
Home: 2akordi.net

Album: "Kotrlja se zivot" (2002.)
Muzika & tekst: Nikola Grbic - Grba
Aranzman: Kornelije Kovac
YT: https://www.youtube.com/watch?v=GLqap05-iPE

Uvod:
(N.C.) Hm                   A
                               _______________ ________________
  ______             _____     _______________ ________________
E|----|--------------------|------------------------------------|
H|----|--------------------|------------------------------------|
G|p---|p-11-11-11-9--------|------------------------------------|
D|----|--------------12-11-|9-----9-11-11-9----11-11-12-11-9----|
A|----|--------------------|---12-----------12---------------12-|
E|----|--------------------|------------------------------------|

  Em                     D                   F#7
               ________      _______________ ______________
                   ____      _______________ ______________
E|----------------------|-----------------------------------|
H|----------------------|-----------------------------------|
G|--12-12--12--11--9----|-------9-11-11-9----9-9-11-9-------|
D|9------------------12-|11--12-----------12----------12-11-|
A|----------------------|-----------------------------------|
E|----------------------|-----------------------------------|

  Hm                   A
                          _______________ ________________
                _____     _______________ ________________
E|--------------------|------------------------------------|
H|--------------------|------------------------------------|
G|--11-11-11-9--------|------------------------------------|
D|9-------------12-11-|9-----9-11-11-9----11-11-12-11-9----|
A|--------------------|---12-----------12---------------12-|
E|--------------------|------------------------------------|

  Em                     D                   F#7             Hm
               ________      _______________ ______________
                   ____      _______________ ______________
E|----------------------|-----------------------------------|-----...
H|----------------------|-----------------------------------|-----...
G|--12-12--12--11--9----|-------9-11-11-9----9-9-11-9-------|-----...
D|9------------------12-|11--12-----------12----------12-11-|9----...
A|----------------------|-----------------------------------|-----...
E|----------------------|-----------------------------------|-----...
                                                             Pitas me kao sam...

Hm
Pitas me kako sam.
Sta da ti kazem ne znam sam.
A
Da je dobro nije to, ali jos se borimo...
G                             F#
Ja i srce umorno, jos te ludo volimo...
 F#7
(Ludo volimo...)

Ref (2x):
Hm
Kotrlja se zivot, bez tebe sve teze...
A
Jer sve sto je lepo, za proslost me veze...
G
Ugaseni plamen jos pomalo tinja...
F#             G     F#        F#7
A nekad je bio prava buktinja...

Solo:
  Hm                   A
                          _______________ ________________
                _____     _______________ ________________
E|--------------------|------------------------------------|
H|--------------------|------------------------------------|
G|--11-11-11-9--------|------------------------------------|
D|9-------------12-11-|9-----9-11-11-9----11-11-12-11-9----|
A|--------------------|---12-----------12---------------12-|
E|--------------------|------------------------------------|

  Em                     D                   F#7             Hm
               ________      _______________ ______________
                   ____      _______________ ______________
E|----------------------|-----------------------------------|-----...
H|----------------------|-----------------------------------|-----...
G|--12-12--12--11--9----|-------9-11-11-9----9-9-11-9-------|-----...
D|9------------------12-|11--12-----------12----------12-11-|9----...
A|----------------------|-----------------------------------|-----...
E|----------------------|-----------------------------------|-----...
                                                                Gledas me...

Gledas me u oci, znam.
Po njima vidis da sam sam.
Kad se setim vremena nasih davnih svitanja.
Kako smo se voleli, sad smo sami ti i ja...
(Sami ti i ja...)

Ref (2x):
Kotrlja se zivot, bez tebe sve teze...
Jer sve sto je lepo, za proslost me veze...
Ugaseni plamen jos pomalo tinja...
A nekad je bio prava buktinja...

Hm         G      F#7   hm
Kotrlja se zivo...ooo...ooot...

Poslao: Johnny035 | Komentara: 0 | Glasova: 0 | Ocjena: x | Print