hari mata hari - ti znas sve

Poslao: Johnny035 | Komentara: 0 | Glasova: 0 | Ocjena: x | Print
Hari Mata Hari - Ti Znas Sve
Transkripcija: Johnny035
07.10.2014.
Home: 2akordi.net

Album: "Volio bih da te ne volim" (1989.) - Jugoton
Muzika & aranzman: Hari Varesanovic
Tekst: Fahrudin Pecikoza
YT: https://www.youtube.com/watch?v=l1V7pArcPnM

Uvod (2x):
  Gm            Gm              Gm               Cm      Gm
                _____
E|--------10---|----------10---|---------10-10--|13--11--10---|
B|----11-------|------11-------|----11----------|-------------|
G|12-----------|12-12----------|12--------------|-------------|
D|-------------|---------------|----------------|-------------|
A|-------------|---------------|----------------|-------------|
E|-------------|---------------|----------------|-------------|

  Eb    F     B    B                   Cm      Gm    Cm       Gm
  _____               _____                             _____
E|15-15-17----15--|-------------------|-------------|--------------|
B|----------------|18-16-18-15-----15-|16----18-15--|16-16-18-15---|
G|----------------|-------------17----|-------------|--------------|
D|----------------|-------------------|-------------|--------------|
A|----------------|-------------------|-------------|--------------|
E|----------------|-------------------|-------------|--------------|

  D                 Gm D   Gm
E|-------------15--|-------------|
B|11-10--11-13-----|11-10--------|
G|-----------------|-------12----|
D|-----------------|-------------|
A|-----------------|-------------|
E|-----------------|-------------|

Gm             Cm
Ti znas da sam skitnica,
      Gm        D
stari heroj bez imena.
    Gm            Cm
Moj svijet - ruza uvela.
      Gm       D
Svaka suza kao posljednja.

Prelaz:
  Gm            Gm
                _____
E|--------10---|----------10---|
B|----11-------|------11-------|
G|12-----------|12-12----------|
D|-------------|---------------|
A|-------------|---------------|
E|-------------|---------------|

Gm            Cm
Jos boli i ne prestaje,
  Gm           D
a nestaje samo najdraze.
       Gm         Cm
Ako me uhvate i odvedu,
Gm        D
pomoli se za mene.

Predref.
  Cm         Gm
Pomoli se za mene,
D       Gm
moj Bog umire.
Cm      Gm
Umire i nestaje
D
daleko od tebe!

Ref.(2x)
Gm              Cm(Gm)   Gm
Ti znas sve alí ne znas, ne,
             Cm   Gm
ne znas meni kako je.
Eb   F     B
Kada snova nestane,
    Cm  Gm Cm Gm  D         Gm D Gm
sve polako umire, za tebe i za mene.

Solo:
  Gm          B           B         B(bass)*
                          \/_________
E|-----------|-----------|6-6------|---------|
B|-----------|-----------|6-6------|---------|
G|-----------|--------5--|7-7------|---------|
D|5---4-5-7--|8---7-8----|8-8------|---------|
A|-----------|-----------|8-8------|---------|
E|-----------|-----------|6-8------|---------|

  B           B           B         B(bass)*
      ___                 \/_________
E|-----------|-----------|6-6------|-------|
B|----8-8-8--|-----------|6-6------|-------|
G|7----------|7---5-7-8--|7-7------|-------|
D|-----------|-----------|8-8------|-------|
A|-----------|-----------|8-8------|-------|
E|-----------|-----------|6-6------|-------|

  Cm        D    Cm D
                       _____
E|--------------|---5--------|
B|--------------|---7--------|
G|5--4-5-7-7/8--|5--7--------|
D|--------------|---7--8-7-5-|
A|--------------|---5--------|
E|--------------|---5--------|

  Gm                Cm
  _______           _______
  _______           _______
E|-----------------|-----------------|
B|-----------------|-----------------|
G|-----------------|5-5-5-5-5-8-7-5--|
D|5-5-5-5-5-8-7-5--|-----------------|
A|-----------------|-----------------|
E|-----------------|-----------------|

  Gm                D           Gm
  _______           _____ _____
  _______           _____ _____
E|-----------------|-----------------|
B|-----------------|-----------------|
G|----------5------|----5------------|
D|8-8-8-8-8---8-7--|7-8---8-7-8-5----|
A|-----------------|-----------------|
E|-----------------|-----------------|

Gm            Cm
Jos boli i ne prestaje,
  Gm           D
a nestaje samo najdraze.
       Gm         Cm
Ako me uhvate i odvedu,
Gm        D
pomoli se za mene.

Predref.
  Cm         Gm
Pomoli se za mene,
D       Gm
moj Bog umire.
Cm      Gm
Umire i nestaje
D
daleko od tebe!

Ref.(2x)
Gm              Cm(Gm)   Gm
Ti znas sve alí ne znas, ne,
             Cm   Gm
ne znas meni kako je.
Eb   F     B
Kada snova nestane,
    Cm  Gm Cm Gm  D         Gm D Gm
sve polako umire, za tebe i za mene.

Ref.(fade out)
Gm
Ti znas sve alí ne znas, ne,
             Cm   Gm
ne znas meni kako je.
Eb   F     B
Kada snova nestane,
    Cm  Gm Cm Gm  D         Gm D Gm
sve polako umire, za tebe i za mene...

\ - trzaj nadole
/ - trzaj nagore

* - Ritam gitara svira samo ton B na bas zici (8. prag zice D ili 6. prag zice E6).


Poslao: Johnny035 | Komentara: 0 | Glasova: 0 | Ocjena: x | Print