azra - kipo (ver.2)

Poslao: Sat-Ok | Komentara: 4 | Glasova: 2 | Ocjena: 5 | Print
Pesma - Kipo
Album - Suncana Strana Ulice
Izvodjac - Azra
Transkripcija - Sat-Ok, cicirar@yahoo.com

Najbolje je svirati arpedjima sa glavnim
tonovima u basu.

Akordi  EADGHE
A       x02220
A/H     x22220
A/C#    x42220
C#(no5) x4xx21
D       xx0232
F7/C#   x42322
H7      x21202
H7/D#   xx1202
E       xx2100
E/D     xx0100
C#7     x4342x
F#m     xx4222
A1      xxx220
E/G#    xxx100
D/F#    xx4232
A2      x02225


Uvod - |A A/H A/C# C#(no5)|D F7/C# H7 H7/D#|

       |E E/D C#7 F#m|H H7/D# E  |


A1    E/G# D/F# A/E       D  A/C#  A/H  A
 Kipo ima  dusu djeteta i kretnje____   dame
A1      E/G#  D/F#  A/E   D  A/C#  A/H  A
 Beskrajno se skanjuje da prica__________
E     A           A/H    A/C#
 Cini mu se da ga gitara ne slusa
A        H7  E
On bi da ona sama svira
A1    E/G#    D/F#    A/E
 Kipo ima oci tople i vlazne
D  A/C#    A/H     A
Mi slusamo njegove ploce
A1      E/G#  D/F#        A/E
 Dok se trudi da ih sve pokaze
D   A/C#    A/H      A
 Umori se i naprosto zaspe
E       A     A/H     A/C#
 U sobi tajac, sve se mijenja
A         H7      E
 Kad Kipo odmara, sale nema
A1       E/G#  D/F# A/E
 Lord mu skida cipe-le
  D     A/C# A/H    A
Rasanjuje se dok ih znjira
A1    E/G#   D/F#    A/E
 Navlacimo kapute po uglovima
D      A/C#   A/H   A     D       E  A
 I ostavljamo ga da sniva,  a, a, a, a
D               E               A   A/H A/C#-
Na, na, na, na, na, na, na, na, na.

       -D F7/C# H7 H7/D#|

       |E E/D C#7 F#m|H H7/D# E  |

       |A1 E/G# D/F# A/E|D A/C# A/H A|

       |A1 E/G# D/F# A/E|D A/C# A/H A2|(A2)  |





Osnovni melodijski prikaz, moguce su varijacije!
(Pratiti date akorde gore)

e|-------------------------------------------|
B|-------------------------------------------|
G|-2-2--1-1----------------------------------|
D|------------4-4--2--2-2--0-0---------------|
A|-----------------------------4-2--2---0-0--|
E|-------------------------------------------|
   Kipo i-ma  dusu djeteta i kre---tnje dame


e|----------------------------------------|
B|----------------------------------------|
G|-2-2---1---1----------------------------|
D|--------------4--4--2--0--0-------------|
A|----------------------------4--2-----0--|
E|----------------------------------4-----|
   Beskrajno se skanjuje da prica________


e|------------------------------------------------------------|
B|------------------------------------------------------------|
G|-------------------------------------------------1-1--------|
D|-----------------------------------2--2--2--1---------4--2--|
A|------0--0--0--0--2-2----4--4--4--------------2-------------|
E|-4-4--------------------------------------------------------|...
   Cini mu se da ga gitara ne slusa  On bi da o-na sama svira





Solo za gitaru (Solo trombon u originalu, pratiti date akorde gore)

e|--------------------------------------------------------------|
B|--------------------------------------------------------------|
G|--------------------------------------------------------------|
D|--------------------------------------------------------------|
A|-0--2--4--7--s12-12-12-11-11-11-9-s11-7--s7-5-4-4-2-----------|
E|-----------------------------------------------------5--5-s7--|


 Komentari:
Poslao :: 313
Uh, nije ni čudno da ovo nikako nisam mogao skinuti, a sad mi je skoro žao da sam pitao po transkripciji, pa ko će sad ovo naučit?! :)
Šalim se, svaka čast Sat-Ok, vjerujem da je odlično, mada će zaista potrjati neko vrijeme dok uvježbam sve te kombinacije hvatova i da ovo koliko-toliko korektno odsviram.
Koš jednom, veliko ti hvala!
Poslao :: Sat-Ok
Hvala 313, videćeš ako provežbavaš da je pesma veoma intuitivna za sviranje, te će biti prilično lako za prste da šetaju po vratu, samo jedan je hvat teži koji se javlja na početku.
Čitao samo komentare da možda može verzija da se stavi kapo pa da se svira kao iz C dura, medjutim tad se ne ispunjavaju uslovi silazne skale u basovima na gitari. Možda ako se stavi kapo za G dur ali i tu ima problema. Tako da mi je ostalo samo sa A durom, prati hvatove gore, sviraj basove, provežbaj prvo delove za strofu, a posle dodaj za instrumentalne delove, kad uđeš u štos!
I budi oprezan sa željama, vidiš da mogu da se ostvare, he, he...
Pozz i uživaj!
Poslao :: Johnny035
Definitvo Džoni nije za one koji sviraju trzalicom nego prstima (fingerstyle). Nije samo leva ruka u pitanju i menjanje ovih hvatova, nego i desna ruka.
Ja ovo ne umem da odsviram jer sviram isključivo trzalicom. Ovo je za one koji sviraju prstima.

Ovo je kao stvoreno da Nitro napravi novi cover. ;D

Na ovom snimku ova pesma je na 00:26:48
https://www.youtube.com/watch?v=yUXK7AxIBx0

Možda je nabolje naučiti osnovne akorde ove pesme i tako svirati na početku. Pa onda ubacivati jedan po jedan inverzni akord.

I mislim da je Džoni svirao po svom nekom osećaju, dodavao je te harmonijske ukrase, tj. inverzne akorde sa vanakorskim tonovima u basu onako kako ga je pesma vodila. Ne verujem da je on na svakom svom nastupu svirao identično dva puta ovu pesmu.
Poslao :: djacic
@johnny035
Možeš da dodaš time stamp na Youtube link u formatu #t=26m48s

https://www.youtube.com/watch?v=yUXK7AxIBx0#t=26m48s


@ostatak ekipe
Nije tako teško, ne dajte da vas uplaše nazivi akorda. Odsvirajte akord po akord pa brže i brže, legne za dan... Može i trzalicom, samo se istim redosledom okidaju žice.
Hvala Sat-Ok, po običaju.
Poslao: Sat-Ok | Komentara: 4 | Glasova: 2 | Ocjena: 5 | Print