azra - pavel (melodija i solo)

Poslao: Sat-Ok | Komentara: 13 | Glasova: 3 | Ocjena: 5 | Print
Izvodjac - Azra
Pesma - Pavel (Melodija i Solo deo za gitaru)
Transkripcija: Sat-Ok, cicirar@yahoo.com

Moguce su varijacije na pojedinim mestima u pesmi!


Uvod - |G9 F9 C D C9|(C9)  |

Strofa
                    Dm     Am           E7
e|-------------------------------------------------|
B|-------------------------------------------------|
G|-------------------------------------------------|
D|-2-2---2--2--3--2-2-0--------2---2-2--2-2-2------|
A|-------------------------------------------------|
E|-------------------------------------------------|
   Pariz ti je da-o sebe       Dio neba zau-vijek


   Am                      Dm    G                     C
e|---------------------------------------------------------|
B|--------0--1-0-----0-------------------------------------|
G|----2-----------2-----2--0----------------------0--0-----|
D|---------------------------3-------3--3---3--3-------2---|
A|---------------------------------------------------------|
E|---------------------------------------------------------|
      Sto te muci na kraju puta      Sjecas li se Spanije


  E                  E7    Am             A7
e|--------------------------------------------|
B|------------0---0--0----------1-0---1-0-----|
G|----------------------------------2---------|
D|--2-2-2--2-----------2------2-----------2---|
A|--------------------------------------------|
E|--------------------------------------------|
    Zanima me dal bi o-pet    i-sao u rovove


  Dm    G7      C                E
e|----------------------------------------|
B|----3-----------------------------------|
G|-------0--------------------------------|
D|---------0-------2-2---2--0----2--3-2---|
A|----------------------------------------|
E|----------------------------------------|
      Oh Pavel,    neman je pred vratima


Refren
   F       G          C    E    F       G    C        E
e|--------------------------------------------------------|
B|---1-1---0-----------------------1--1-0-----------------|
G|------------2--2--0-2-0-----------------2--2-0-0--------|
D|--------------------------------------------------------|
A|--------------------------------------------------------|
E|--------------------------------------------------------|
     Pariz ti je da-o sebe         Di-o neba zau-vijek


  F         G       C     C/H Am      Dm    D2 Dm  G7       C
e|---------------------------------------------------------------|
B|---1---1--0----------------------------------------------------|
G|------------2--0--0--0-----------------------------------------|
D|------------------------3---2-----0-0--0---0--0------0--3-2----|
A|---------------------------------------------------------------|
E|---------------------------------------------------------------|
     Sto te muci na kraju pu--ta    i sjecas li se     Spanije




Solo za gitaru
         Dm        Am                       E    E7      Am
e|-10-12-13--12-10-------------------------------12---10-8----------|
B|-----------------13-15h-13p--12-10--12-10-9----------------12-10--|
G|---------------------------------------------9----9---------------|
D|------------------------------------------------------------------|
A|------------------------------------------------------------------|
E|------------------------------------------------------------------|


   Dm            G            C          E              E7
e|----------------------------------------------12---12-10---10------10-|
B|-13---------10-12------------------------9-12-----------------9-12----|
G|----10---12------------9-10-9-10h-9p---9---------9-------9------------|
D|------------------12--------------------------------------------------|
A|----------------------------------------------------------------------|
E|----------------------------------------------------------------------|


   Am         A7                Dm       G7                  C
e|---------------------12-15-12-13-------13-13---------------12------|
B|-13---12-13-14----14------------------------------12-13-15---------|
G|---------------14-------------------14-------12-----------------12-|
D|-------------------------------------------------------------------|
A|-------------------------------------------------------------------|
E|-------------------------------------------------------------------|

      E                    F          G          C   E
e|-12-12--------------------------------------------------|
B|--------15-13-12---13-15-13-----------------------------|
G|------------------------------16-14-16---14-16-12-------|
D|--------------------------------------------------------|
A|--------------------------------------------------------|
E|--------------------------------------------------------|

         F          G         C          E
e|--------------------------------------------|
B|----12-13---15-13-12------------------------|
G|-14-------------------14-16-12------12-13---|
D|---------------------------------14---------|
A|--------------------------------------------|
E|--------------------------------------------|


         F          G          C   C/H Am   Dm D2 Dm      G7     C
e|-----------------------------12--------------------------------------|
B|----12-13---12-13-15---13-15-----15--13--------------13-12--13-13----|
G|-14---------------------------------------14------14-----------------|
D|-----------------------------------------------15--------------------|
A|---------------------------------------------------------------------|
E|---------------------------------------------------------------------|



Govoris mi o ideji
O patriotizmu generacije
Da li je to skup interesa nekorisnih ljudi
Ili nesto vrijedno robije
Razgovarajmo o slobodi
Sjecas li se Spanije
Oh Pavel neman je pred vratima
Pariz ti je dao sebe
Dio neba zauvijek
Sto te muci na kraju puta i
Sjecas li se...


Koda
...G7      C   A7  Dm G7      C     A7   Dm  G9 F9 C  D  C9
e|------------------------------------------------------------|
B|------------------------------------------------------------|
G|------------------------------0---2-------------------------|
D|----0--3-2-------------0--0-2-------------------------------|
A|------------------------------------------------------------|
E|------------------------------------------------------------|
      Spanije            Spanij-e_____
 Komentari:
Poslao :: Johnny035
Samo jedno pitanje. Kako se hvata ovaj C/H? Na kojoj poziciji najbolje i najpravilnije da se uhvati?
Inače, pet za ovo. Moraju drugi da čuvaju Džonija od njega samog, da se ne zaborave ove silne pesme, iako se on svojski trudi da se više ne govori: ni o njenu, ni o Azri.. ;D
Odlična pesma za one koji vežbaju često menjanje hvatova, jer je tempo pesme lagan.
Poslao :: Sat-Ok
Hvala Džoni i zapažanjima, evo hvata za C/H: x2x010.
Poslao :: 313
Ovo je zaista odlično! Pretpostavljam da je D2 = Dsus2?

I kolegu Sat-Ok-ja bi ljubazno zamolio, ako mu nije teško, a čini mi se da je to već i sam jednom pomenuo, kad bi bio tako ljubazan i uradio od Azre pjesmu "Kipo", jer to je, ako se ne varam, jedina pjesma iz albuma 'Sunčana strana ulice' koja još fali u arhivi. Pokušavao sam nešto sam, ali je to, prosto rečeno, "too much for my mind". Hvala najljepša! (P.S.: Pretraga čak i nađe "Kipa", ali kad klikneš na nj ispiše ono famozmo "Kamo dalje rođače...?/Don't do that :)".)
Poslao :: NoMAD
azra - kipo.txt:
http://2akordi.net/akordi.net?a=uploads&t=v&id=130922101020

Je to to ?
Poslao :: 313
To je to, ali kad otvorim, nema transkripcije, nego piše: "Kamo dalje rođače...? Don't do that :)". Zar vi ostali vidite transkripciju?
Poslao :: Sat-Ok
Hvala, da D2 je Dsus2, onako u "prolazu" se svira kao i C/H, znam za i odradiću "Kipu" samo da sačekam da zadovoljavajuće prođe par situacija iz drugih oblasti privatno kod mene.
Poslao :: NoMAD
https://www.dropbox.com/s/ssm3zhyf0cbs66g/Screenshot%202014-06-10%2023.21.25.png
de s ti to bio rođače ?
Poslao :: Johnny035
I meni se ovo isto dešava.

Ukucam u pretragu, izbaci mi:
azra - kipo.txt (xNovosti)

Kliknem na link, kad ono piše:
"Kamo dalje, rođače? (Don't do that! :)"

Mislim, ako smo već rođaci, ne bi trebalo da krijemo jedni od drugih korisne stvari. ;D
Poslao :: 313
Da, Nomad, to je to! Čini mi se da je to dosta simple verzija, jer ako se ne varam, "Kipo" sastoji iz dosta "tricky" akorda. A može biti da sam samo ja gluh...
Poslao :: Johnny035
313:
Ja sam na ovom sajtu već petu godinu i kad sam došao, odeljak Xnovosti, kao i arhiva, je imao gomilu radova koji nisu bili možda savršeni, delovali su uprošćeno, sa 3-4 akorda, svako je postavljao u onim tonalitetima u kojima peva i svira.
A ovde je manje ljudi koji imaju muzičke škole i akademije, a mnogo više početnika i samoukih gitarista kojima transkripcije trebaju ja obične svirke, a ne za velike koncerte i snimanja u studijima.

Zato je i ona verzija (koju i dalje ne mogu da otvorim preko pretrage), kako ti kažeš, jednostavna.

Ja sam među prvima insistirao da za svoje radove postavljam isključivo studijske verzije, u originalnim tonalitetima. Na to su se drugi nadovezali, onda nam je došao i Hungary, koji je gledao sve "u sitna crevca" ;D, svaki ton i svaki akord, bilo je s njim povuci-potegni.

E, onda nam je došao Sat-Ok i prevazišao sve što se tiče kvaliteta radova i onda smo svi videli koliko su neke pseme koje ljudi godinama sviraju vrteći 3-4 akorda ustvari komplikovane.
Poslao :: Sat-Ok
Hvala Džoni, po meni najbolje je kombinacija rada (učenje) i talenta (samoukost). Često je i najteža...

Uzgred, na Amazon Kindle Store u zadnje vreme su puštene u prodaju odlične Hal Leonardove digitalne profi knjige sa akordima: Bob Marley, David Bowie, The Beatles, Elvis Presley, Paul McCartney, Creedence i mnoge druge. Ako imate Viza Internet karticu možete veoma povoljno doći do profesionalnih radova u vezi harmonija poznatih grupa, a tu se mnoge stvari mogu naučiti. Ja sam skoro otkrio neke nove hvatove koji su veoma efektno uklopljeni u pesmu, a za koje bi neko na prvi pogled rekao da su besmisleni (na pr. čudni akord Dm/C# (!?!)

Poslao :: rasko
Super je ovo odradjeno,respekt. Btw Johnny kada pominjes vunderkindove nemoj zaboraviti Igora Medarevica,koliko se secam taj tip je svaku pesmu u ton skinuo,kako u txt formi,tako i u GP. Narocito Kad bih bio bijelo dugme.:)
Poslao :: Jasmin
Za 313

Stulic je napravio pjesmu Kipo u svom genijalnom stilu. Pjesmu je uradio na klasicnoj skali. Uzmi gitaru i kreni iz C i onda nastavi skalom, C, H, A, G, F, E, D, C

jednostavno :)
Poslao: Sat-Ok | Komentara: 13 | Glasova: 3 | Ocjena: 5 | Print