branimir stulic - fait accompli

Poslao: Sat-Ok | Komentara: 2 | Glasova: 2 | Ocjena: 5 | Print
Pesma - Fait Accompli
Album - Balkanska Rapsodija
Izvodjac - Branimir Johhny Stulic
Transkripcija: cicirar@yahoo.com



   H+                    (E)
e|-7~-------------------------------------------------------|
B|-8~-------------------------------------------------------|
G|-8~--------------------------1--1------------------1--1---|
D|-9~--------------------------2--2------------------2--2---|
A|----------------------------------------------------------|
E|----------------------------------------------------------|
        There s more in between     heaven and earth


             (A)                (E)
e|---------------0--------------------------------|
B|---------------2--2---0-------------------------|
G|------------------2--------------------1---1----|
D|---------------------------------------2---2----|
A|------------------------------------------------|
E|------------------------------------------------|
   Fait accompli        sorry my friend


e|---------0--5--4----0--0--4-2--0----0---0--0-|
B|-0--2---------------0--0----------------0--0-|
G|--------------------1--1----------------1--1-|
D|--------------------2--2----------------2--2-|
A|---------------------------------------------|
E|---------------------------------------------|
   Priznat ces da sve       i-ma svoj put


            (F#m)(A)                   (E) (E4) (E)
e|-4--2-0----2----0--------------------------------|
B|-----------2----2--2---0-------------------------|
G|-----------2-------2-----------------1--1--------|
D|-----------4-------------------------2--2--------|
A|-------------------------------------------------|
E|-------------------------------------------------|
   Fait accompli         zivot je glup


         (C#m)        (F#)            (A)  (Am)(E)   (E4)  (E)
e|-4-s7----4---7-s9----2---x-----------5----5---4-----2-----0--|
B|---------5-x---------2---x-----------5----5------------------|
G|-1-s4----6-x---------3---x-----------6----5---4-----2-----1--|
D|---------6-x-------4---4-------------7----7------------------|
A|-------4---x-------------------------7-----------------------|
E|-------------------------------------5-----------------------|
   Pa i kad    za-ze-lim       da se vratim u   yeah, yeah, yeah


        (C#m)        (F#)         (Fm#7)       (H)  (H+)
e|-4-s7----4---7-s9----2---x-------2-----------------7~----|
B|---------5-x---------2---x-------2------------4----8~----|
G|-1-s4----6-x---------3---x-------2------------4----8~----|
D|---------6-x-------4---4---------2------------4----9~----|
A|-------4---x---------------------4------------2----------|
E|---------------------------------2-----------------------|
   Necu da     govor-im       vise nego sto  bi ti   John



             (E)                                     (F#m)(A)          (E)
e|-------0-5--4----------4-2----0---0--------4--2--0--2----0--------------------|
B|-0-2-------------5b7r5-----------------------------------2-2-0----------------|
G|--------------------------------------4b6r4----------------2--------------1--1|
D|--------------------------------------------------------------------------2--2|
A|------------------------------------------------------------------------------|
E|------------------------------------------------------------------------------|
   Nekad i-li sad        moment ili dva      to je za nas      svrsena stvar


        (C#m)        (F#)             (A)  (Am)(E)   (E4)  (E)
e|-4-s7----4---7-s9----2---x-----------5----5---4-----2-----0--|
B|---------5-x---------2---x-----------5----5------------------|
G|-1-s4----6-x---------3---x-----------6----5---4-----2-----1--|
D|---------6-x-------4---4-------------7----7------------------|
A|-------4---x-------------------------7-----------------------|
E|-------------------------------------5-----------------------|
   Pa i kad    za-ze-lim       da se vratim u   yeah, yeah, yeah


        (C#m)        (F#)         (Fm#7)       (H)  (H+)
e|-4-s7----4---7-s9----2---x-------2-----------------7~----|
B|---------5-x---------2---x-------2------------4----8~----|
G|-1-s4----6-x---------3---x-------2------------4----8~----| - Kraj
D|---------6-x-------4---4---------2------------4----9~----|
A|-------4---x---------------------4------------2----------|
E|---------------------------------2-----------------------|
   Necu da     govo-rim       vise nego sto  bi ti   Johny

 Komentari:
Poslao :: Johnny035
Koliko vidim po ovim tvojim radovima, u Johnnyjevim pesmama je svašta moguće: tri različita tonaliteta u jednoj strofi, završetak pesme sa alterovanim akordom.

Za ovo prvo se i ne čudim, viđao sam tako nešto i ranije, ali završetak pesme sa alterovanim akordom (H5+, tj. H+) dosad nisam video. Stvarno ne pmatim pesmu za takvim završetkom.
Poslao :: Sat-Ok
Hvala na komentu Džoni, ima raznih završetaka, ne pr. skoro sam našao primer da se pesma završava sa C6/9.

A da, H+ iz gornje pesme je nekako više za početak, međutim možda je Gosn. Štulić namerno ostavio taj akord na kraju, kao da ima još nešto reći ali da je ostao bez teksta. Možda na slušaocu ostaje da dovrši ili nastavi pesmu...ili pesma ide u krug...ili se nastavlja na sledeću pesmu na albumu...ili je takav kraj jednostavno omaž toj harmoniji u rok i pop muzici...
Poslao: Sat-Ok | Komentara: 2 | Glasova: 2 | Ocjena: 5 | Print