lepa brena - vrati mi srce

Poslao: Johnny035 | Komentara: 0 | Glasova: 1 | Ocjena: 5 | Print
Lepa Brena  Vrati Mi Srce

Transkripcija: Johnny035
10.03.2014.
Home: http://2akordi.net/
YT: https://www.youtube.com/watch?v=QAMi-2n1bcg

Album: "Cetiri godine" (1989.)- Diskoton
Muzika: Rade Krstic
Tekst: Zoran Matic
Aranzman: Kornelije Kovac

  Cm                Cm              B                   Eb
       _____ _____           _____      ___________            _____
E|-----------------|---------------|-------------------|-------------|
H|-----16-16-15-15-|---------------|-------------------|-------------|
G|-----------------|17-17----17-15-|15--17-15----------|-------------|
D|17---------------|---------------|----------18-18-17-|17-----18-17-|
A|-----------------|---------------|-------------------|-------------|
E|-----------------|---------------|-------------------|-------------|

  Fm                G         G7                    Cm
          ________            ________ ___________
E|-----------------|---------|---------------------|---------|
H|-----------15----|---------|---------15-16-15----|---------|
G|--------------17-|16-------|------------------16-|17-------|
D|15--15--15-------|---------|17-15-17-------------|---------|
A|-----------------|---------|---------------------|---------|
E|-----------------|---------|---------------------|---------|

(2x)
Cm
Vrati mi srce,
C7     Fm
dusu i telo.
         Cm
Vrati mi noc
G7      Cm
i jutro belo.

Ref. (2x)
Cm          Ab
Potrosio si me
B7          Eb
k'o pijanac snove
Fm     Cm
i ostavio
G7           Cm
zbog ljubavi nove.

Vrati mi strepnju,
ceznju i nadu.
Vrati mi san
i zoru mladu.

Ref. (2x)
Potrosio si me
k'o pijanac snove
i ostavio
zbog ljubavi nove.

Vrati mi osmeh,
reci i suze.
Vrati mi dan
kad sve mi uze.

Ref. (2x)
Potrosio si me
k'o pijanac snove
i ostavio
zbog ljubavi nove.

...i ostavio
zbog ljubavi nove.

Zavrsetak:
|Cm  G7     |Cm  G7 Cm    |

Poslao: Johnny035 | Komentara: 0 | Glasova: 1 | Ocjena: 5 | Print