lutajuca srca - ne zovi me vise

Poslao: Sat-Ok | Komentara: 0 | Glasova: 0 | Ocjena: x | Print
Izvodjac - Lutajuca Srca
Pesma - Ne Zovi Me Vise
Transkripcija: Sat-Ok, cicirar@yahoo.com
               Hvala Zoldini


https://www.youtube.com/watch?v=w5Uawy_jmPY

Uvod

       Am        G    Em    C    D      Em
e|-----------------------------------------|
B|-----------------------------------------|
G|-------2--4-p2---------------2-----------|
D|-2-4-5---------5-2-2--2-3-4----4--2-0-2--|
A|-----------------------------------------|
E|-----------------------------------------|

       Am        G    Em    C    D     Em
e|-----------------------------------------|
B|-----------------------------------------|
G|-------2--4-p2---------------2-----------|
D|-2-4-5---------5-2-2--2-3-4----4-2-0-2---|
A|-----------------------------------------|
E|-----------------------------------------|


|Em  |Em  |

    Am               G
Tad lagacu sebi reci sve,
C           D         Em
Plakacu dok traje noc duga._____
  Am                   G
U mislima cu uvek biti s njim,
       C    D          Em
Dok mi srce para bol i tuga._____


   Am      C         G D  Em
Ne zovi me vise, jer nisi moj._____
   Am        C    D     Em          - 2x
Ne trazim od tebe osmeh tvoj._____


Instr.

I proci Še sve za dan ili dva
Sve dok te ne sretnem s drugom.
I opet ostacu ja sama,
Sa gitarom starim drugom

A nadanja ce zaludnja,
U dusi potajno da gore.
I nemiri u meni dobro znam.
Za tebe ce pesmu da stvore.

Ne zovi me vise...

...
   Am        C    D     Em
Ne trazim od tebe osmeh tvoj._____ - Fejdaut










Poslao: Sat-Ok | Komentara: 0 | Glasova: 0 | Ocjena: x | Print