e play - divan dan

Poslao: izgubljen | Komentara: 7 | Glasova: 2 | Ocjena: 5 | Print
E-play - Divan dan (2013)
Transkripcija: izgubljen (djole_kris@yahoo.com)


Uvod:
                                          \
e||----10-10-10-10--------------------|   |
H||----------------12-10----10--------|   |
G||-11-------------------11----14-9---|   |
D||-----------------------------------|   |
A||-----------------------------------|   |
E||-----------------------------------|   2
                                          x
e||----10-10-10-10--------------------|   |
H||----------------12-10----10-12-----|   |
G||-11-------------------11-------13--|   |
D||-----------------------------------|   |
A||-----------------------------------|   |
E||-----------------------------------|   |
                                          /


F#m A D E  > (4x)



  F#m  A              D        E          \
e||----10-10-10-10--------------------|   |
H||----------------12-10----10--------|   |
G||-11-------------------11----14-9---|   |
D||-----------------------------------|   |
A||-----------------------------------|   |
E||-----------------------------------|   2
                                          x
e||----10-10-10-10--------------------|   |
H||----------------12-10----10-12-----|   |
G||-11-------------------11-------13--|   |
D||-----------------------------------|   |
A||-----------------------------------|   |
E||-----------------------------------|   |
                                          /



F#m
Hajde reci mi
A
Koliko godina
D
Nama je potrebno
E
Da neke stvari prodju

Hajde reci mi
Koliko godina
Od danas jos imamo
Za ono sto nas ceka

Hajde reci mi
Kako je moguce
Da nisam primetila
Da odlazis od mene

Hajde reci mi
Kako ne vidis
Da divan je ovo dan
Nazalost ne za nas


Ref. > (4x):
F#m A                D     E
    Kako ne vidis da divan dan je

< Prelaz: Drugi deo uvoda > (4x)>


< Prelaz: Drugi deo uvoda > (4x), sa pevanjem: ne, ne, ne, ne... >


Hajde reci mi
Koliko godina
Nama je potrebno
Da neke stvari prodju

Hajde reci mi
Koliko godina
Od danas jos imamo
Za ono sto nas ceka

Hajde reci mi
Kako je moguce
Da nisam primetila
Da odlazis od mene

Hajde reci mi
Kako ne vidis
Da divan je ovo dan
Nazalost, ne za nas

Ref. > (4x):
    Kako ne vidis da divan dan je

< Prelaz = Uvod >
 (Divan dan je...)

< Solo = Refren >

Ref. > (8x):
    Kako ne vidis da divan dan je
                          (nazalost, ne za nas  > (4X))


Kraj: F#m
 Komentari:
Poslao :: izgubljen
Prvi!
Poslao :: Sat-Ok
Pustili smo te jednom da i ti budeš prvi! Čudili smo se samo što si kasnio. Sve najbolje u novoj!
Poslao :: jeremija
To je ta pesma :D

Sve najbolje ortaci ;D
Poslao :: Sat-Ok
Hvala Jeremija!
Poslao :: izgubljen
Hvala, hvala. Sve najbolje!
Poslao :: R.J.Rays
Dao sam 5 al solo ne valja :D, poslacu ovde u komentare ispravak il tebi na pm pa ispravi pa posalji. sve ostalo dobro ;)
Poslao :: R.J.Rays

e----9-9-9-9-7-----------------------
H--7-----------10-7--10-9------------
G-------------------------9----------
D------------------------------------
A------------------------------------
E------------------------------------

e----9-9-9-9-7-----------------------
H--7-----------10-7--10-10/12--9-----
G------------------------------------
D------------------------------------
A------------------------------------
E------------------------------------

Poslao: izgubljen | Komentara: 7 | Glasova: 2 | Ocjena: 5 | Print