yu grupa - zamolicu te (solo)

Poslao: Perrotta | Komentara: 0 | Glasova: 0 | Ocjena: x | Print
YU GRUPA - Zamolicu Te (Solo)

Transkripcija: Perrotta

solo za prvi i treci krug. Za drugi i cetvrti mi ne ide :)

e|---------------------------------------------------------------------------
H|---------------------------------------------------------------------------
G|-2-2-2-2-2-2---2-2-2-2-2-2-------2-2-2-2-2---2-----0-----------------------
D|-0-0-3-0-3-0---0-0-3-0-3-0-3/5-3-0-3-0-3-0---02/3---3-2-0-----------------
A|-------------3-----------------------------3---------------3---------------
E|---------------------------------------------------------------------------


e|---------------------------------------------------------------------------
H|---------------------------------------------------------------------------
G|-2-2-2-2-2-2---2-2-2-2-2-2-------2-2-2-2-2---2-----------------------------
D|-0-0-3-0-3-0---0-0-3-0-3-0-3/5-3-0-3-0-3-0---0-3/2-0---0-3/2-0------------
A|-------------3-----------------------------3----------3---------3----------
E|---------------------------------------------------------------------------

Poslao: Perrotta | Komentara: 0 | Glasova: 0 | Ocjena: x | Print