yu grupa - zamolicu te (tema)

Poslao: Perrotta | Komentara: 3 | Glasova: 0 | Ocjena: x | Print
YU GRUPA  Zamolicu Te (Tema)

Transkripcija: Perrotta

    Dm         C       G     Dm        C        G
e|-------------------------------------------------------------------
H|-------------------------------------------------------------------
G|-------------------------------------------------------------------
D|--------3----3-3-2-3-5-3-0-------3---------------------------------
A|-0-3--5---5----------------0-3-5---5-3-3-0/1-----------------------
E|---------------------------------------------1-3-------------------

   Dm         C       G     F           G
e|-------------------------------------------------------------------
H|-------------------------------------------------------------------
G|-------------------------------------------------------------------
D|-------3----3-3-2-3-5-3-0-3-0-0-0/1--------------------------------
A|-0-3-5---5--------------------------3-0/1--------------------------
E|------------------------------------------3-3-1--------------------

 Komentari:
Poslao :: Perrotta
Tako otprilike ide, mada nisam vest u kucanju tabova...
Ako neko moze da uradi glavni solo :)
Poslao :: vvuujjaa
predpostavljam da ce biti jos ispravki i dodataka pa ti savjetujem da ih stavljas u komentar ovog rada, i obavezno koristis opciju tab iznad prozora za kucanje teksta sa desne strane se nalazi



solo za prvi i treci krug. Za drugi i cetvrti mi ne ide :)

e|---------------------------------------------------------------------------
H|---------------------------------------------------------------------------
G|-2-2-2-2-2-2---2-2-2-2-2-2-------2-2-2-2-2---2-----0-----------------------
D|-0-0-3-0-3-0---0-0-3-0-3-0-3/5-3-0-3-0-3-0---02/3---3-2-0-----------------
A|-------------3-----------------------------3---------------3---------------
E|---------------------------------------------------------------------------


e|---------------------------------------------------------------------------
H|---------------------------------------------------------------------------
G|-2-2-2-2-2-2---2-2-2-2-2-2-------2-2-2-2-2---2-----------------------------
D|-0-0-3-0-3-0---0-0-3-0-3-0-3/5-3-0-3-0-3-0---0-3/2-0---0-3/2-0------------
A|-------------3-----------------------------3----------3---------3----------
E|---------------------------------------------------------------------------


Poslao :: vvuujjaa
evo ja sam ti sastavio ovaj solo sa temom, ako jos neko nesto bude dodavao moze to ovdje uraditi, a potom ce neko od moderatora sve to ljepo da doda u rad...
Poslao: Perrotta | Komentara: 3 | Glasova: 0 | Ocjena: x | Print