dino merlin - sredinom (uvodni solo)

Poslao: sin_juga | Komentara: 0 | Glasova: 0 | Ocjena: x | Print
E---------------------------------------------------------------
A---------------------------------------------------------------
D----5/7---7/9-----7h9---7~-----5/7---7/9-----------------------
G--------5------9-------------------5-----------109h10p9-------
H------------------------------------------/8-------------------
E---------------------------------------------------------------

E---------------------------------------------
A---------------------------------------------
D-7--9------------------------------------9---
G-------9-----------10-9h10p9---5/7--5------
H----------10--8------------------------------
E---------------------------------------------

E------------------------------------------------------
A------------------10------------------------10-8~-----
D-7-9-10-9h10p9--7----7~---7-9-109h10p9-7-------------
G------------------------------------------------------
H------------------------------------------------------
E------------------------------------------------------

Poslao: sin_juga | Komentara: 0 | Glasova: 0 | Ocjena: x | Print