mobi dick - duzna si mi ostala (uvod + solo)

Poslao: nepredvidiv | Komentara: 2 | Glasova: 1 | Ocjena: 5 | Print
Mobi Dick - Duzna Si Mi Ostala


Transkripcija: Nepredvidiv Bg


Uvod:

            Gm             Eb               F                     D7
e--------------|--------------|--------------|------------------|------------|
h----11p10--11~|13/15--13-----|--------------|------------------|------------|
g--------------|-----------12~|12--12h14~--14|14h15-15p13p12--11|12/14~------|
d--12----------|--------------|--------------|------------------|--------12--|
a--------------|--------------|--------------|------------------|------------|
e--------------|--------------|--------------|------------------|------------|



            Gm               Eb                  Cm               D7
e-----------------|----------------|10--10-10--|--8---8--8---6--|--5--5-5-6-8-|
h-----11p10--11~--|13/15--13-------|11--11-11--|--10--10-10--8--|--7--7-7-8-10|
g-----------------|-----------12~--|-----------|----------------|-------------|
d-12--------------|----------------|-----------|----------------|-------------|
a-----------------|----------------|-----------|----------------|-------------|
e-----------------|----------------|-----------|----------------|-------------|


Mala Solaza Pri Kraju Pesme:


   Gm                  Eb                    F                     D7
e---------------------|---------------------|---------------------|--------------|
h--8-10-11--10--8--11~|8--10--11--10--8--11~|8--11--10--8------10~|--------------|
g---------------------|---------------------|--------------10-----|----7-8-8-7---|
d---------------------|---------------------|---------------------|10~---------10|
a---------------------|---------------------|---------------------|--------------|
e---------------------|---------------------|---------------------|--------------|


   Gm                 Eb                        Cm                        D7
e------------------|-------------------------|-------------------------|---------|
h--11--10--8--11~--|--8--10--11--10--8--11~--|--8--11--10--8------10~--|--8--7~--|
g------------------|-------------------------|----------------10-------|---------|
d------------------|-------------------------|-------------------------|---------|
a------------------|-------------------------|-------------------------|---------|
e------------------|-------------------------|-------------------------|---------|

 Komentari:
Poslao :: izgubljen
Nik! :))))

Dobrodosao!
Poslao :: nepredvidiv
Hvala, hvala veliko! :)
Poslao: nepredvidiv | Komentara: 2 | Glasova: 1 | Ocjena: 5 | Print