smak - nevidljive terazije

Poslao: djacic | Komentara: 4 | Glasova: 3 | Ocjena: 5 | Print
Izvodjac: Smak
Pesma: Nevidljive terazije
Album: Super 45 (1978)

Transkripcija: Ivan Djacic (djacic@2akordi.net)
Home         : http://2akordi.net
Tekst        : http://www.svastara.com


Uvod:

  H         Em        Am        G   D/F# Em
E-4---4-2-4-5---5-4-5-7---7-5-7-8~~~7~~~~5--------------------
H-------------------------------------------------------------

  H         Em        Am        G   D/F# Em D/F# G
E-4---4-2-4-5---5-4-5-7---7-5-7-8~~~7~~~~5~~7~~~~8~~~---------
H-------------------------------------------------------------

<uvod 2: D# F Gm 4x>

Gm (rif):

bas    A---------1-----------------------1--------------------
       E---3-x-1---3-3-1-x---------3-x-1---3-3-1-x------------


gitara E------------------------------------------------------
       H------------------------------------------------------
       G--------------------3-X-3-5~~~-------------3-X-3-5~~~-
       D--------------------3-X-3-5~~~-------------3-X-3-5~~~-
       A----------------------sa-varijacijama-na-temu---------
       E------------------------------------------------------


Gm (rif)
Vidim ja kakav ti je stas
Ako smes stani na bardak
Udubis li mesto sednes ti za cas
Dal' se meris cesto ili lazes nas

ref:
D#             F            Gm
Boluju zene od tog' da budu (merne?)/nezne
D#                F                Gm
vilinski lake ko' list, ko' drhtav glas
D#            F               Gm
Al' ako imaju gram il' trunku vise
D#            F            Gm  (rif)
Umiru zene za tren u svoju cast

Sad znam ja u cemu je jad
Lepse vole kad ih mori glad
Zato manje, zeno, jedi da ti stas
Drzi ravnotezu i ne ljuti tar

<ref>

solo:

   D#                    F                                Gm
E---b--r-------------------b--r----------------------------------
H-13-15-13-11-13-11------13-15-13-11-13-11----11----------11-----
G-------------------12---------------------12-------10-12----12~~
D------------------------------------------------12--------------
A----------------------------------------------------------------
---------4x-ponoviti-sa-minimalnim-improvizacijama---------------


   D#                    F                       Gm
E----------------------------------------------------------------
H--11-13-10-11-----------11-13-10-11----10-----------------------
G--------------12--------------------12----12-10-12~~~~~~--------
D----------------------------------------------------------------
A----------------------------------------------------------------
----------------------2x-ponoviti--------------------------------


   D#    F    Gm           D#      F       Gm
E------------------------------6-------8---6--5--3---------------
H---s-----------------------s-------s----------------------------
G--5-7---8----7---5---3----5-7-----7-8-----7--5--3---------------
D---------------------------------------------------5------------
A----------------------------------------------------------------
E----------------------------------------------------------------

   D#                F                     Gm
E----------------------------------------------------------------
H---b-r----------------------------------------------------------
G--5-7-5-3-5-3--------5-7-5-3-5-3---3-------3--------------------
D--------------5------------------5-----3-5---5------------------
A-------------------------------------5--------- ----------------
---------4x-ponoviti-sa-minimalnim-improvizacijama---------------

<ref>

D#                F
Na na na na na na na
         Gm
Na na na na na

D# D# D# D# D# D# F
Na na na na na na na
F  F  F  Gm
Na na na na




!!! D/F#  200xxx !!!



                 ^  ^
/--------------( *  * )---------------\
|=====================================|
|        < DjAkOn   StRaSnI >         |
|          djacic@2akordi.net         |
\-------------------------------------/

 Komentari:
Poslao :: djacic
Vidimo se na koncertu...
Poslao :: Sat-Ok
Super 5 po meni.
Poslao :: Sat-Ok
Eventualno bih maj7 ubacio u refrenu.
Poslao :: Hackaholic
Sto volim kad vidim "< DjAkOn StRaSnI >" :)
Svaka cast!
Poslao: djacic | Komentara: 4 | Glasova: 3 | Ocjena: 5 | Print