bijelo dugme - lipe cvatu (uzivo 1987 god.)

Poslao: Sat-Ok | Komentara: 6 | Glasova: 3 | Ocjena: 5 | Print
Izvodjac - Bijelo Dugme
Pesma - Lipe Cvatu (Uzivo)
Album - Mramor, Kamen i Zeljezo (1987 god.)
Transkripcija: Sat-Ok, cicirar@yahoo.com

Napomena: ideja da uradim ovu verziju dosla je iz razgovora sa igorukom
(sa 2akordi.net),naime slozili smo se da je uvod iz studijske verzije
jednostavno veoma nepogodan da se uradi za gitaru u tabovima.
Razlog? Mozda zato sto je uvod odsviran na gajdama. Dovoljno je to reci (zaista).

Sa druge strane ova uzivo verzija ima rif koji je odsviran na
klavijaturama (Laza ili Vlada) i moze sasvim fino da se obradi za gitaru
kao sto sam eto dole uradio. Ako se pazljivo uvezba moze zaista fino da "zvuci.
Tamo gde sam stavio "Tr" podrazumeva se da je triler dokle idu crtice,
molim izvodite te delove sa hammer on i pull off. Ipak zbog siline trilera
i sveopste vestine potrebne za uspesno sviranje melodijskih delova,
pretpostavljam da da su ti delovi za odlican srednji nivo.

A da, takodje u ovoj verziji je barem jasno da je Dm u pitanju.

Srecno sviranje!



Uvodni Rif (Prvi put se svira bez harmonija)


   Dm                B
e|-----------------------------------------|
B|-----------5---6---6-8-6-5---5-6-5-6-5---|
G|-7-9-7-6-7-----------------7-----------7-|
D|-------------7---7-----------------------|
A|-----------------------------------------|
E|-----------------------------------------|
   Tr-----           Tr-----   Tr--------


   Dm                B
e|-----------------------------------------|
B|-----------5---6---6-8-6-5---5-6-5-------|
G|-7-9-7-6-7-----------------7-------------|
D|-------------7---7-----------------------|
A|-----------------------------------------|
E|-----------------------------------------|
   Tr-----           Tr-----   Tr---


   Dm                Gm
e|-----------------------------------------|
B|-----------5---6---6-8-6-5---5-6-5-6-5---|
G|-7-9-7-6-7-----------------7-----------7-|
D|-------------7---7-----------------------|
A|-----------------------------------------|
E|-----------------------------------------|
   Tr-----           Tr-----   Tr--------


   A7                Dm
e|---------------------------|
B|-7-8-8-6-8-6-5-------------|
G|---------------7-6-7-7-7-7-|
D|---------------------------|
A|---------------------------|
E|---------------------------|
         Tr-----





Fill 1 (*1)
  B
e|--8-9-10-10-8-6-8-6-5---|
B|----------------------8-|
G|------------------------|
D|------------------------|
A|------------------------|
E|------------------------|
               Tr-----


Fill 2 (*2)
   A
e|-------------------|
B|---------------2-3-|
G|-2-3-2-3-2-2-3-----|
D|-------------------|
A|-------------------|
E|-------------------|
   Tr---




Fill 3 (*3)
   Dm
e|-------------------------------|
B|-----------5---6---8-6-5-6-5---|
G|-7-9-7-6-7-------------------7-|
D|-------------7---7-------------|
A|-------------------------------|
E|-------------------------------|
   Tr-----             Tr---



Dm
Ljeto ide, kako si mi ti

Gdje si, s' kim si, da mi je znati
            F
Ko li mi te ugrijao
G            B
Dok je zimus snijeg padao
A           Dm  C  B(*1) A7         Dm
Ko li mi te lju-bi-o,    grom ga ubio

Dm           B        C  Dm B C
Bas me briga gdje si otisla
Dm          B        F  A (*2)
Ravna ti je Jugoslavija
Dm            F
Bas me briga, nisi dijete
G            B
Sve u korist tvoje stete
A           Dm  C   B(*1) A        Dm (*3)
Samo tvoje, al' i moje,   srce boluje


B  C  B   F
Li-pe cva-tu
A           B
Sve je isto k'o i lani
     F     Gm Dm  Gm Dm A7     Dm
Hej, samo, sr-ce  mo-je i srce tvoje
Gm Dm Gm Dm A7              Dm
U  ljuba-vi vise ne_____ stoje.


-Rif sa Harmonijama...


Dm...
Zaklinjem se dusom i Bogom,
Krvi mojom, plavom seljackom.
Kunem ti se i umrijecu,
ali ja te trazit' necu,
Necu, necu, a umrijecu, a umrijecu...

...
B     C       B     F
Li____pe_____ cva____tu_____,
A           B
Sve je isto k'o i lani
     F     Gm Dm  Gm Dm A7     Dm
Hej, samo, sr-ce  mo-je i srce tvoje
Gm Dm Gm Dm A7              Dm
U  ljuba-vi vise ne_____ stoje.

Koda - Fill *3 - Kraj

 Komentari:
Poslao :: jeremija
Jako, jako nezgodno, ali mislim da je odlično skinuto. Verovatno najjača transkripcija pomenute pesme do sada.
Poslao :: Johnny035
Je l' si po ovom snimku radio? http://www.youtube.com/watch?v=s2gSy1h9TyQ

Fenomenalno! Ovo bi bilo interesantno odsvirati na šargijama.

Ko hoće ovo da svira u originalnom tonalietu, sve ovo neka prebaci u E-mol. Bar tako piše u njihovoj autobiografiji gde između ostalog ima i transkripcija većine njihovih pesama, a tu knjigu sam kupio pre njihovog koncerta na Hipodromu..

I ovaj uvod može da se svira i oktavu više (na električnoj gitari, ali ne koristiti visok overdrive (tj. ne pojačavati ga), niti pedale za distorziju da bi se dobio zvuk sličan šargijama).

A ukoliko se desi da svirate sa još dvojicom gitarista, ovo može da se svira i na tri gitare, s tim da jedna gitara svira kao što je napisano u tablaturama (poželjno je da se koristi viši overdrive ili pedala za distorziju), druga gitara da svira za oktavu više (da se overdrive smanji potpuno, odnosno da se ne koristi ni pedala da bise dobio taj narodnjački zvuk, tj. da zvuči kao da se svira na šargijama), a treća gitara da svira pratnju. Sad i ja verovatno preterujem, ali ovakve transkripcije prosto nude dosta ideja kako se može nešto odsvirati. Kad sam video ovaj rad odmah mi je palo na pamet kako ovo može da se prearanžira za tri gitare.
Poslao :: Sat-Ok
Da, taj je snimak, predlažem da ako se ima problema sa brzinom, da se malo uspori MP3, a onda da se prosvirava uz to, i polako da se ubrzava do originala. A skoro mogu 100% da garantujem da kad se jednom "udje u štos", rif prosto klizi dok se svira. Veoma je prijatno za "uho" tada.

Hvala za ocene!
Poslao :: Sat-Ok
Da, može da se uredi za više instrumenata, pa čak i Bregović je često duplirao gornje sekvence na distorziranoj gitari. To je radio i u ovoj gore verziji.
Poslao :: igoruk
brate mili sta da ti kazem????
kao prvo nisam hteo da ti odgovaram na PP vec ovde...da ,slozili smo se da je studijski uvod pakleno tezak da se skine i da se postave svi ti tremolo i ovo i ono...
ovo trenutno ne mogu da proverim i da ocenim mada ti nizu ocenu od 10 ne bih ni dao iz vise razloga a jos veca fora je u tome da sam pre par dana otisao na 3 nedelje za peru u posetu zeninima...uuufff hahaha
ovih dana cu da vidim da kupim neku gitaru pa da probam ovo a u isto vreme da ovim likovima sviram nas dobri stari rok..da ih malo obrazujem nasom kvalitetnom ex yugo muzikom/glazbom...pono hvala na kolaboraciji..mada je cinjenica da sve zasluge idu tebi a malcice i krediti meni;)

pozzz svima
Poslao :: igoruk
evo moja prva petica za tebe Sat-Ok:)
Poslao: Sat-Ok | Komentara: 6 | Glasova: 3 | Ocjena: 5 | Print