azra - kao ti i ja (uvod)

Poslao: filip2002 | Komentara: 0 | Glasova: 1 | Ocjena: 4 | Print
Izvodjac: Azra

Pesma: Kao ti i ja (uvod)

Album: Filigranski plocnici (1982.)

Muzika i tekst: Branimir Johnny Stulic

Transkripcija: Filip2002, filipmilojkovic@gmail.com


Ovako sam ja sklepao da to zvuci ok na jednoj gitari...
A na vama je da ocenite.


         F#m      Hm                    Hm       C#m
E|-7/5-0-2--2-2---7-----------------2/5-7--7-7---9--9/8/7-|
H|-7/5-0-2--2-2---7-----------------2/5-7--7-7---9--9/8/7-|
G|-------2--2-2---7---2-h4p2--2h4p2-----7--7-7---9--------|
D|-------4--4---x-9--4------4------4----9--9---x-11-------|
A|-------4--4---x-9---------------------9--9---x-11-------|
E|-------2--2---x-7---------------------7--7---x-9--------|

   F#m      E        F#m
E|-2--2-2---0--0-0---2--|
H|-2--2-2---0--0-0---2--|
G|-2--2-2---1--1-1---2--|
D|-4--4---x-2--2---2-4--|
A|-4--4---x-2--2---2-4--|
E|-2--2---x-0--0---0-2--|

P.S. Nadam se da sam dobro pojasnio ritam ove stvari...:)

Poslao: filip2002 | Komentara: 0 | Glasova: 1 | Ocjena: 4 | Print