zeljko bebek - sinoc sam pola kafane popio

Poslao: Čivija | Komentara: 4 | Glasova: 4 | Ocjena: 5 | Print
Izvodjac:      ZELJKO BEBEK
Naziv pesme:   "Sinoc sam pola kafane popio"
Naziv albuma:  "Niko vise ne sanja" (1989.god)
Transkripcija: Civija

                                                            ______________  ________
 Am ___                 D                Dm___G            |Am  C  D  G   ||Am      |
e--0---0-1-3--3-1-0-1-|-----------------|-----------0------|----------0---||--------|
H---------------------|-3-3-1--3-3-1----|-3---3-3-1----3-1-|----1--3------||--------|
G---------------------|---------------2-|------------------|-2-----------.||-2------|
D---------------------|-----------------|------------------|-------------.||--------|
A---------------------|-----------------|------------------|--------------||--------|
E---------------------|-----------------|------------------|--------------||--------|

 Am                      G           Dm
 Covjek prosto pobrljavi kad se nadje u ljubavi,
 Am                  G             Dm G Am
 na oba oka ocoravi, i prijatelje zaboravi…

 Am                       G            Dm
 Ljubav je stanje opsadno i nikad nije dosadno,
 Am                          G           Dm G   Am
 zena je stvorenje cudljivo, cudljivo i uzbudljivo…


           Dm         Am        G           Am
 REFREN:   Sinoc sam, sinoc sam pola kafane popio,
           Dm         Am        G         Am
           zbog tebe, zbog tebe nisam oka sklopio.   (2x)

                                                            _____________  ________
  Am___                 D                Dm___G            |Am  C  D  G  ||Am      |
e--0---0-1-3--3-1-0-1-|-----------------|-----------0------|----------0--||--------|
H---------------------|-3-3-1--3-3-1----|-3---3-3-1----3-1-|----1--3-----||--------|
G---------------------|---------------2-|------------------|-2----------.||-2------|
D---------------------|-----------------|------------------|------------.||--------|
A---------------------|-----------------|------------------|-------------||--------|
E---------------------|-----------------|------------------|-------------||--------|


 Am                      G           Dm
 Covjek prosto pobrljavi kad se nadje u ljubavi,
 Am                  G             Dm G Am
 na oba oka ocoravi, i prijatelje zaboravi…

 Am                       G            Dm
 Ljubav je stanje opsadno i nikad nije dosadno,
 Am                          G           Dm G   Am
 zena je stvorenje cudljivo, cudljivo i uzbudljivo…


           Dm         Am        G           Am
 REFREN:   Sinoc sam, sinoc sam pola kafane popio,
           Dm         Am        G         Am
           zbog tebe, zbog tebe nisam oka sklopio.   (2x)
                                                           _____________  ________
  Am___                 D                Dm___G           |Am  C  D  G  ||Am      |
e---------------------|-----------------|-----------------|-------------||--------|
H--5---5-6-8--8-6-5-6-|-----------------|-----------5-----|----------5--||--------|
G---------------------|-7-7-5--7-7-5----|-7---7-7-5---7-5-|----5--7----.||--------|
D---------------------|---------------7-|-----------------|-7----------.||-7------|
A---------------------|-----------------|-----------------|-------------||--------|
E---------------------|-----------------|-----------------|-------------||--------|


           Dm         Am        G           Am
 REFREN:   Sinoc sam, sinoc sam pola kafane popio,
           Dm         Am        G         Am
           zbog tebe, zbog tebe nisam oka sklopio.   (2x)

 Komentari:
Poslao :: Čivija
Ovaj solo iz pete pozicije je, po meni, prilagodljiviji za kolege "na struju".
Poslao :: jeremija
Apsolutno fantasticno. Znas da sam juce poceo da skidam intro i solo :D Hvala ;)
Poslao :: jeremija
Kopkao me onaj Dm u strofama, mislim da tu ide D dur ipak :)
Poslao :: igoruk
nisam probao da odsviram ali dajem ti pismeni 5 za odabir pesme i ovo ide u moju arhivu u kompu.
samo nastavi tako.
pozzz
Poslao: Čivija | Komentara: 4 | Glasova: 4 | Ocjena: 5 | Print