galija - kotor

Poslao: Čivija | Komentara: 2 | Glasova: 0 | Ocjena: x | Print
Izvodjac:       GALIJA
Naziv pesme:  "Kotor"
Naziv albuma: "Voleti, voleti" (1997.god)
Transkripcija: Civija



| Am | Am | Am | Am | G | Em | Am | Am |

                Am                              G             Em             Am
e---------------0---------------0------------0-----------------------------------||
H------0--1--3---------0--1--3---------0--1-----3--1--0-----------------0--1-----||
G----2---------------2---------------2-------------------2--0-----0--2--------2-.||
D--2---------------2---------------2---------------------------2----------------.||
A--------------------------------------------------------------------------------||
E--------------------------------------------------------------------------------||

          Am                  Em    G   Am
Drsko je imala godina, koliko Kotor vekova…
                                 Em    G   Am
U sebe sam je sakrio, k’o strogu tajnu cuvao.

               F      G   Am       F       G   Am
REFREN:   Kako usnama miluje… Kako prstima sapuce…

                Am                              G             Em             Am
e---------------0---------------0------------0-----------------------------------||
H------0--1--3---------0--1--3---------0--1-----3--1--0-----------------0--1-----||
G----2---------------2---------------2-------------------2--0-----0--2--------2-.||
D--2---------------2---------------2---------------------------2----------------.||
A--------------------------------------------------------------------------------||
E--------------------------------------------------------------------------------||

         Am                       Em      G      Am
U zemlju snova smo otisli, kupine poljupcima delili…
                              Em     G   Am
Bila je kraljica dodira, moja radost nocima.

               F      G   Am       F       G   Am
REFREN:   Kako usnama miluje… Kako prstima sapuce…  (2x)  ( prelaz: | Am G | )

   C                 G             E          Am
Carobnjak je bila, u kosi je krila opojne mirise…
C                G              E
Stalno se secam, Kotoru vracam, da opet osetim…

               F      G   Am       F       G   Am
REFREN:   Kako usnama miluje… Kako prstima sapuce…  (2x)


| Am | Am | Am | Am | G | Em | Am | Am |  / 3x

                Am                              G             Em             Am
e---------------0---------------0------------0-----------------------------------||
H------0--1--3---------0--1--3---------0--1-----3--1--0-----------------0--1-----||
G----2---------------2---------------2-------------------2--0-----0--2--------2-.||
D--2---------------2---------------2---------------------------2----------------.||
A--------------------------------------------------------------------------------||
E--------------------------------------------------------------------------------||

                Hm                              A             F#m            Hm
e---------------2---------------2------------2-----------------------------------||
h------2--3--5---------2--3--5---------2--3-----5--3--2-----------------2--3-----||
G----4---------------4---------------4-------------------4--2-----2--4--------4-.||
D--4---------------4---------------4---------------------------4----------------.||2x
A--------------------------------------------------------------------------------||
E--------------------------------------------------------------------------------||
 Komentari:
Poslao :: vvuujjaa
;)
Poslao :: igoruk
to je to ali mislim da si umesto akorada u tablaturama trebao napraviti modulaciju u solo fazonu zato sto se svira jako brzo i po mom misljenju svirati po akordima malo odzvanja umesto svirati u solo fazonu gde se,cini mi se svira ako ne i frula ili nesto slicno sve u svemu arhivirao sam ovo u svoj komp i dajem ti 5;)
pozzz
Poslao: Čivija | Komentara: 2 | Glasova: 0 | Ocjena: x | Print