parni valjak - dodji (ispravka)

Poslao: Čivija | Komentara: 8 | Glasova: 3 | Ocjena: 5 | Print
F#m      E      C#m         D    C#  F#m9   E9         D        C#        F#m
Dodji, zaboravi,   nudim ti noci carobne, i budjenja u postelji punoj secera…
F#m        E      C#m     D        C#   F#m9      E9      D    C#          F#m
Ispred mog prozora   drvo divljeg  kestena,  puno plodova koje nitko ne treba.
F#m             E     C#m     D       C# F#m9
Andjeli nek’ te cuvaju   kada vrijeme oboli…
      E9              D       C#         F#m E D C#
Da li covjek sve, bas sve, na kraju preboli?


              D          E     C#         F#m  D        E          C#m
REFREN:  Zaspao bih sada ja na tvojim rukama,  budio se ne bih nikada…
              D            E     C#        F#m D           Am7-5     C#4 C#
         neka vrijeme samo broji svoje godine, meni je vec dosta cekanja.




F#m      E      C#m         D    C#   F#m9  E9         D        C#        F#m
Dodji, zaboravi,   nudim ti noci carobne  i budjenja u postelji punoj secera…
F#m     E      C#m         D        C#  F#m9     E9      D      C#         F#m E D C#
Dodji i ostani,   nudim ti suze k’o bisere, moje namjere jos su uvijek iskrene.


                D          E     C#         F#m  D        E          C#m
REFREN:    Zaspao bih sada ja na tvojim rukama,  budio se ne bih nikada…
                D            E     C#        F#m D           Am7-5     C#4 C#
           Neka vrijeme samo broji svoje godine, meni je vec dosta cekanja.


        p.o.             sl.                                  sl.
e-----------------------------------------------------------------------
B--10--10-9-------------------10--9--9--9--9-----------------7/9--12-10-
G-------------11--9--7--9/11------------------11--9---------------------
D----------------------------------------------------12--11-------------
A-----------------------------------------------------------------------
E-----------------------------------------------------------------------

             /\                               p.o.             sl.
e----------------------------------------------------------------------------------
B--12--14--14--12--10--12--10--9---------10--10--9------------------10--9--9--9--9-
G---------------------------------11--9-------------11--9--7--9/11-----------------
D----------------------------------------------------------------------------------
A----------------------------------------------------------------------------------
E----------------------------------------------------------------------------------

                    sl.                    /\      /\                     sl.
e--------------------------------------------------------------------------------||
B-----------------10/12--14--10--12--14--14--12--14--12--10--12--10--12--12/14---||
G--11--9-------------------------------------------------------------------------||
D---------12--11-----------------------------------------------------------------||
A--------------------------------------------------------------------------------||
E--------------------------------------------------------------------------------||


                D          E     C#         F#m  D        E          C#m
REFREN:    Zaspao bih sada ja na tvojim rukama,  budio se ne bih nikada…
                D            E     C#        F#m D           Am7-5     C#4 C#
           Neka vrijeme samo broji svoje godine, meni je vec dosta cekanja.  (3x)

 Komentari:
Poslao :: Johnny035
Je l' bi mogao samo da staviš šemu ovih devetki (F#m9 i E9)?
Poslao :: Čivija

(E9) | (F#m9)
|
E A D G B e | E A D G B e
3 3 3 5 4 5 | x x 2 2 2 4


Ovo su varijacije hvatova koje sam ja koristio, jer mi se čine kao najpogodnije (najlakše). Kada se svira arpeđom, ovi detalji dolaze do izražaja, a, u punom ritmu može da prođe i E i F#m, kao što ja i sviram, ali sam se ipak potrudio da ovde zapišem tačno. Odnosno, bar mislim da je tačno :)
Zbog pevanja, ova intonacija je za mene visoka, pa sam se našao u Dm, i u slučaju da to nekome odgovara, tada će biti ovako:

(C9) | (Dm9)
|
E A D G B e | E A D G B e
x 5 5 5 5 6 | x x 2 2 1 1
Poslao :: Čivija
Moram da uputim dva izvinjenja:

- Prvo je upućeno svima, zbog moje nepopravljive navike da pišem B umesto H, ali se nadam da to svi kapiraju, i da nikome neće predstavljati problem, a ja ću, već u sledećoj transkripciji koju treba da "okačim", ispraviti obeležavanje po standardima koji se ovde traže.

- Drugo izvinjenje je za kolegu Sat-Ok, kojem sam obećao da ću pri postavljanju radova primeniti neka njegova uputstva (znaće on o čemu se radi...), ali, eto, navika je i ovoga puta preduhitrila moje obećanje.

Hvala na razumevanju.
Poslao :: Johnny035
Što se mene tiče, vreme ti je za status D7. :D
Poslao :: Čivija
Hvala, druže, ali to mi nije prioritet. Ne znam ni koje su prednosti većeg statusa...
U poslednje vreme sam se malo ozbiljnije posvetio solo sviranju, pa su ovo neki proizvodi mog truda, a tvoja pohvala, i eventualne pohvale ostalih kolega, za mene su dovoljna nagrada.
Izbaciću večeras još nešto od "Parnog valjka". Već viđeno, ali ipak drugačije, na neki moj način...
Poslao :: nesa_zr
Mnogo dobro zvuci!
Poslao :: vvuujjaa
meni smeta sto tvoji radovi nemaju zagljavlje...

nekako mi ruzno djeluju ovi radovi, mislim da bi se trebao naviknuti da pises gore, ime pjesme, ime izvodjaca, ime transkriptora, album sa kog je pjesma, imas vec na forumu milion tema o tim standardima...

inace radovi su ti vrh, jedni od boljih na sajtu ;)
Poslao :: Igor
Civija, cini mi se da je ova sema za E9 ustvari za F9. Mozda grijesim, ali ne bi bilo zgoreg da se to provjeri. U svakom slucaju, odlican rad.
Poslao: Čivija | Komentara: 8 | Glasova: 3 | Ocjena: 5 | Print