bjesovi - avioni pevaju

Poslao: izgubljen | Komentara: 4 | Glasova: 2 | Ocjena: 5 | Print
Bjesovi - Avioni pevaju
Album: Bezimeni (1994)
Transkripcija: izgubljen (djole_kris@yahoo.com)



Uvod:
  Bas
G||------------||------------|
D||------------||------------| \2
A||------------||------------| /x
D||-5-8-5-8-8--||-3-7-3-7-7--|
   |---(2x)---|  |---(2x)---|


e||-----------------------------5-3--|
H||---------1-3-5-----------5--------|
G||---0-1-2-------5-4-3-4-0---0------|
D||-2--------------------------------|
A||----------------------------------|
D||----------------------------------|



|Am        |G        |  > (4x)


     Am
Moja mama
Moja tata
Moja kuca
         G
Moja sekaaaaaa
Am
Spava se i spava
           G
Spava se i sanja
Am                \
A dva sprata nize  \ 2
           G       / x
Smeje se i pusi   /


|A5  |A5   |G5  |    |  > (2x)

Am
Meseci pevaju
      G
Ptice pevaju
Am
Avioni pevaju
          G
Pevaju se smeju
Am
Juce je umro tata pas
          G
I brat se udao
Am
Tata pas se napio
  G
I pevao


Re. > (2x):
A5
Divna je noc
(A5)
Divna je noc
G5
Divna je .... noc


< Solo:  Am G   >  (2x) >

< Prelaz = Uvod >


Moja mama
Moja tata
Moja kuca
Moja seka
Spava se i spava
Spava se i sanja
A dva sprata nize  \ 2
Smeje se i pusi    / x


Juce je umro tata pas
I brat se udao
Tata pas se napio
I pevao

Ref. > (2x):
Divna je noc
Divna je noc
Divna je... noc


< Solo 2: A5 G5 >


Kraj: Am G > (10x)
      Am




 Komentari:
Poslao :: izgubljen
Pa jebote i ovo vec ima u arhivi...
Ima li pesme na ovom svetu da vec nije odradjena? :(
Poslao :: Johnny
Ima.
Bjesova pogotovo.
Poslao :: Johnny
Kako je ocajna transkripcija u arhivi, ova bi mogla da je zameni.
Poslao :: kandid
dobar rad. nek si poslao :)
Poslao: izgubljen | Komentara: 4 | Glasova: 2 | Ocjena: 5 | Print