the bambi molesters - bikini machines

Poslao: keko13 | Komentara: 1 | Glasova: 1 | Ocjena: 5 | Print
   ###                                       ###
   #   The Bambi Molesters - Bikini Machines   #
   #                                           #
   #    by: keko13 @ 2akordi.net              #
   ###                                       ###


:: INTRO

   A G F E

:: LEAD

    PM.........................................................................
    tr~~~~~~~~~~~~~~~~~~~~~~~~~~~~~~~~~~~~~~~~~~~~~~~~~~~~~~~~~~~~~~~~~~~~~~~~~
                  A       D             E                     A
e|--12-10-9-7--|---------------------|-------------------------------------------|
B|-------------|---------------------|---------------------------10-10----10-10--|
G|-------------|------6---------9-7--|-----------9-12-11-9-----------------------|
D|-------------|----7---7-7---7------|--9-9----9-----------11----------11--------|
A|-------------|--7---------9--------|------11----------------12-----------------|
E|-------------|---------------------|-------------------------------------------|
                \_______________________________x2______________________________/

    PM...........................................................................
    tr~~~~~~~~~~~~~~~~~~~~~~~~~~~~~~~~~~~~~~~~~~~~~~~~~~~~~~~~~~~~~~~~~~~~~~~~~~~
    D                    A                          D                    A
e|---------------------------------|-------------|---------------------------------|
B|---------------------------------|-------------|---------------------------------|
G|---------------------------------|--9-11-9-----|---------------------------------|
D|-------------9----9-10-11-11-11--|---------11--|-------------9----9-10-11-11-11--|
A|-----9-11-12---12----------------|-------------|-----9-11-12---12----------------|
E|--10-----------------------------|-------------|--10-----------------------------|

                 PM..............................................................
                            tr~~~~~~~~~~~
                 D                            F                   E
e|--/9---/9---|----------------------------|-------------------|-------------------|
B|--/10--/10--|--------9-10-12-10-9-10-12--|--13-----13----13--|--12-----12----12--|
G|--/9---/9---|-----11---------------------|----14-------------|----13-------------|
D|------------|--12------------------------|------15----15-----|------14----14-----|
A|------------|----------------------------|-------------------|-------------------|
E|------------|----------------------------|-------------------|-------------------|

                     PM...........................................................
                     tr~~~~~~~~~~~~~~~~~~~~~~~~~~~~~~~~~~~~~~~~~~~~~~~~~~~~~~~~~~~
                     A       D             E                     A
e|----12--10-9-7--|---------------------|-------------------------------------------|
B|----------------|---------------------|---------------------------10-10----10-10--|
G|-/13--13--------|------6---------9-7--|-----------9-12-11-9-----------------------|
D|----------------|----7---7-7---7------|--9-9----9-----------11----------11--------|
A|----------------|--7---------9--------|------11----------------12-----------------|
E|----------------|---------------------|-------------------------------------------|
                   \_______________________________x2______________________________/

                                          tr~~~~
    F#m           Bm        F#m           D   E
e|-------------|---------|-------------|---------------|
B|-------------|------7--|-------------|---------------|
G|-------------|----7----|-------------|---------------|
D|----7-10h11--|--9------|----7-10h11--|---------------|
A|--9----------|---------|--9----------|--9-9-11-9-11--|
E|-------------|---------|-------------|---------------|
  \_____x2____/


   - sve se jos jedanput odsvira


:: OUTRO

   A G F E

    PM.......
    tr~~~~~~~
               A
e|--12-10-9-7--5--|
B|-------------5--|
G|-------------6--|
D|-------------7--|
A|-------------7--|
E|-------------5--|


!!!  Bm = Hm   !!!

____________________


PM.. - palm mute
tr~~ - trill
/    - slide up
h    - hammer on

A    - 5 7 7 6 5 5
G    - 3 5 5 4 3 3
F    - 1 3 3 2 1 1
E    - 0 2 2 1 0 0
D    - x 5 7 7 7 5
F#m  - 2 4 4 2 2 2
Bm   - x 2 4 4 3 2


 Komentari:
Poslao :: keko13
matere im i taj palm mjut, trebao sam skidati u audacityju s tempom na -20 da ista cujem :D
ali zato garantiram da je svaki ton tocan, izuzev eventualnog tipfelera.
Poslao: keko13 | Komentara: 1 | Glasova: 1 | Ocjena: 5 | Print