alisa - glupo je spavati dok svira rock'n'roll

Poslao: Sat-Ok | Komentara: 7 | Glasova: 1 | Ocjena: 5 | Print
Izvodjac: Alisa
Pesma: Glupo Je Spavati Dok Svira Rock'n'Roll
Transkripcija: Sat-Ok, cicirar@yahoo.com


Tempo: Moderate Rock

Glavni Lick
   D                                       (A)     D
e|---------------------------------------------------|
B|-8-/10-10-10-\8-7-8-7--7----7---8-/10-10-10-\8-9-7-|
G|-9-/11-11-10-\9-7-9-7--7----7---9-/11-11-10-\9-9-7-|
D|--------------------7---7-h9---------------------7-|
A|---------------------------------------------------|
E|---------------------------------------------------|


Strofe
  D         G                  A              D
e|-----------------------------0-----0----0-----------|
B|-3-3--3---0-3-3-3-3---3--3-----3-----3----3-3-------|
G|----------------------------------------------------|
D|----------------------------------------------------|
A|----------------------------------------------------|
E|----------------------------------------------------|
   Kako sam u-moran k'o da sam celog dana kopao.

  D         G              A              D
e|-------------------------0---0-----0---------------|
B|-3-3--3---0-3-3---3--3-3---3---3------3-3----------|
G|---------------------------------------------------|
D|---------------------------------------------------|
A|---------------------------------------------------|
E|---------------------------------------------------|
   A krevet u-doban je kao varijanta ot-pao.

  D         G                  A                D
e|-2-2---0--0------------------0------0-----0---2----|
B|-------------3-3-3-3---3--3-----3------3----3------|
G|---------------------------------------------------|
D|---------------------------------------------------|
A|---------------------------------------------------|
E|---------------------------------------------------|
   Kapci su preteski k'o da su pravljeni od o-lova,

  D           G              A              D    A...
e|-2---2---0--0--------------0---0------0------------|
B|--------------3--3--3-3-3----3-----3----3-3--------|
G|---------------------------------------------------|
D|---------------------------------------------------|
A|---------------------------------------------------|
E|---------------------------------------------------|
   Al' jos cu i-grati i-a-ko u-mirem od bolova.



Refren 2x

  ...A   D         G         A            D
e|-5-3---2----2-2--3----3----5-5---0-0-3--2---|
B|--------------------------------------------|
G|--------------------------------------------|
D|--------------------------------------------|
A|--------------------------------------------|
E|--------------------------------------------|
   I-grajmo, 'ajmo svi, nek' ritam pobedi bol,

         D       G      A            D
e|-5--3--2--2--2-3--2---0--0------------------|
B|----------------------------3----2-3--------|
G|--------------------------------------------|
D|--------------------------------------------|
A|--------------------------------------------|
E|--------------------------------------------|
   Glupo je spavati dok svira rock'n'roll.



Zivot je ludilo i nema milosti za pospane.
Ne bi me cudilo da sutra ujutru ne osvane.

Solo /D  /G  /A  /D  / - 2x

Igrajmo...

Koda /D D7 G Gm A7/D   D9/(D9)  /


 Komentari:
Poslao :: Sat-Ok
Ovo je poruka koju sam dobio, moj boravak na sajtu se ugrožava.


Poslao: ivan3
Primalac: Sat-Ok
Naslov: upozorenje
Poruka: da li si uopće poslušao pjesmu koju si komentirao ? ovlaš nabacivanje komentara koji nemaju veze s vezom, a time i banaliziranje rada i autora ti se više neće tolerirati.

prvo si komentirao u stilu "moglo bi i drugačije, to ću reći, ali neću reći ništa konkretno" pa da nakon takve bube u uho daš nezainteresiran odgovor kao da te pitam za nešto u čemu si bio jasan.
nije tu riječ o dojmu nego jel stoji ili ne stoji.

druga stvar, stvarno mi nije jasno čemu takav pristup. već sam te upozorio na takvo ponašanje.


slijedeći prijestup - karantena.
šteta da radiš tako dobre radove, a minimum kulture da ne držiš.
Poslao :: Sat-Ok
Pogledajte pesmu Djecaci - Lovrinac za detalje.
Poslao :: Sat-Ok
E pa, sa vraćanjem mog statusa na F5 od strane zahvalnog ivan3 stvari se menjaju.
Poslao :: Sat-Ok
Od ovog momenta želim da zaduženi moderatori znaju da nemaju dozvolu od mene da moji radovi budu na ovom sajtu!

Zahtevam da se svi moji radovi izbrišu pod hitno!

Ponavljam

Zahtevam da se svi moji radovi izbrišu pod hitno!

Poslao :: vvuujjaa
cekajte ljudi da prodje koja noc, jutro je uvijek pametnije...

sat-ok i ivan3 naredjujem vam da sto pre rjesite ove gluposti niste djeca, i da se sve nastavi u ljepsem tonu...

nema smisla drzati sat-ok na f5, naprotiv mislim da je on sazrep za D7...
Poslao :: jeremija
Slazem se sa vujom. Ovo stvarno nikom ne koristi, nego cak naprotiv.
Poslao :: Brega
Stvarno mislim da nema potrebe za ovim, pa valjda smo svi ovde zbog toga što volimo muziku.
Poslao: Sat-Ok | Komentara: 7 | Glasova: 1 | Ocjena: 5 | Print