bijelo dugme - selma (melodija za gitaru)

Poslao: Sat-Ok | Komentara: 4 | Glasova: 3 | Ocjena: 5 | Print
Izvodjac: Bijelo Dugme
Pesma: Selma
Transkripcija melodije: Sat-Ok, cicirar@yahoo.com
Hvala na pomoci Anonimusovom notnom zapisu pesme.


Rok Balada
   Am                H             Hm7b5  G                C
e|---------------------------------------------------------------------------|
B|-1-----3-3-2--1--0-1--------------------------------6----6-5---------------|
G|-----------------------5-4--4-2--4-4-----0--2-4---5------------------------|
D|---2---------------------------------0-------------------------------------|
A|---------------------6-----------------------------------------------------|
E|---------------------------------------------------------------------------|
   Selma Putuje na fak-u-ltet o-na putuje, ja kofer nosim  molim
 '

   Dm                             E                       Am
e|-----1-1---1--0---0--------------------------------------------------6-5---|
B|--------------------3---3----1--1--0---------0---3-1----0------------------|
G|----------------------------------------1--2--------------2----------------|
D|---------------------------------------------------------------------------|
A|---------------------------------------------------------------------------|
E|---------------------------------------------------------------------------|
       Tezak je al' posto njen je licno   ja i taj kofer  volim        Selma


Refren

   Dm     G      C                  Dm
e|-3-1-------3---1---1--0----1-0----0-------------------|
B|------------------------------------3--3-1------------|
G|------------------------------------------------------|
D|------------------------------------------------------|
A|------------------------------------------------------|
E|------------------------------------------------------|
   Selma___  Zdravo, Selma   Putuj, Se-lma__________


   E                                Am
e|------------------------------------------------------|
B|---0-0-0---0---1--3-3-1---0--1----0-------------------|
G|-------------------------------------2----------------|
D|------------------------------------------------------|
A|------------------------------------------------------|
E|------------------------------------------------------|
     I molim te, ne naginji se kroz prozor



Strofa 2

Selma,na ulasku u voz ti htjedoh rec'
Nesto njezno, sto izaziva pozor
Al’ rekoh samo zdravo, Selma
I molim te ne naginji se kroz prozor

Hm7b5  
e|---x-----|
B|---3-----|
G|---2-----|
D|---3-----|
A|---2-----|
E|---x-----|
 Komentari:
Poslao :: jeremija
Zaintrigirao si me sa ovim Hm7b5, kako to sviras?

A ocena 'fala Bogu petica :D
Poslao :: Sat-Ok
Hvala Jeremija

Evo akorda


Hm7b5

e|---x-----|
B|---3-----|
G|---2-----|
D|---3-----|
A|---2-----|
E|---x-----|


Poslao :: Brega
@Sat-Ok
Lepo zvuči ovo, naročito ovaj Hm7b5, ub'o si ga svaka čast. :-) Ja bih još možda dodao E7 posle E, ali i ovako je super. I od mene čista 5.
Poslao :: Sat-Ok
Hvala, za Hm7b5 opet sam imao malu pomoć Anonimusa. Jeste da dobro leži u pesmi, onako ekstra.

No sličan akord sam sam skinuo kod pesme Lepa Protina Kći. Baš kad kreće u drugi deo pesme.
Poslao: Sat-Ok | Komentara: 4 | Glasova: 3 | Ocjena: 5 | Print