ulica od meseca - nije u redu

Poslao: rocker | Komentara: 2 | Glasova: 1 | Ocjena: 5 | Print
Ulica od meseca - Nije u redu


by M.S.Rocker


Intro:
                                                    C#m
 C#m        H             C#m           H           |-----harm------|
e--------4----|-------------|--------4----|----------12-----------12--|
H----4-5----7-|------4-7--5-|----4-5----7-|------4-7------------------|
G-6-----------|-4--6--------|-6-----------|-4--6----------------------|
D-------------|-------------|-------------|---------------------------|
A-------------|-------------|-------------|-------------9---9---7-----|
E-------------|-------------|-------------|---------------9---9-------|


C#m                       H
Nije u redu, nije u redu, znam,
A                                E
nisam se javio, nisam dosao onaj dan.
     H
Onaj dan...
           C#m
Do tvoje kuce.

C#m                    H
Onda kad smo terali na otomanu
A
sestra cuva strazu, majka se muva po stanu,
       E              H
a cale stideo, a cale stideo,
               C#m
stavljajuci kravatu...

C#m                       H
Kupio nam video i sve sto treba
A
da ne bi okolo sa ganovima i snifom
    E                    H
kao uvek... I budite kod kuce.
           C#m
ostani kod kuce.


A                     E
Duso moja, duso, pickice,
e-----------|
H-----------|
G-13-11-----|
D-------14--|
A-----------|
E-----------|

H                      E
mala moja, mala devojcice.
e----------------|
H----------------|
G-------------6--|
D-----6-7-9-9----|
A-7-9------------|
E----------------|

A                     E
Duso moja, duso, pickice,
e-----------|
H-----------|
G-13-11-----|
D-------14--|
A-----------|
E-----------|

H                   C#m
voleo sam da ljubim te.


Intro


Popili smo sve u flasama,
probusila si mi uvo, nezno poklonila mindjusu
koju sam zavoleo...
kao onda.


Bas je bilo lepo secanje
na Novom Beogradu padaju kise mnogo vise
dva - tri sata,
dva - tri sata...


Duso moja, duso, pickice,
mala moja, mala devojcice.
Duso moja, duso, pickice,
voleo sam da ljubim te.


Nije u redu, nije u redu, znam,
upropastio sam tako divan sjaj
kajanje je sranje,
da prodje cekanje.


Solo: (C#m, H, A, E)

e----------------------------------------------------------------------------|
H----------------------------------------------------------------------------|
G-6-6-6-4-6--4-6-6-6-4-6--4-6-6-6-4-6--4-6-6-6-4-6--4-6-6-6-4-6--4-6-6-6-4-6-|
D-6-6-6-4-6--4-6-6-6-4-6--4-6-6-6-4-6--4-6-6-6-4-6--4-6-6-6-4-6--4-6-6-6-4-6-|
A----------------------------------------------------------------------------|
E----------------------------------------------------------------------------|


e-12--12-12-12--12\---12--12-12-12--12\--|
H-12--12-12-12--12\---12--12-12-12--12\--|
G----------------------------------------|
D----------------------------------------|
A----------------------------------------|
E----------------------------------------|


e----------------------------------------------------------------------------|
H----------------------------------------------------------------------------|
G-6-6-6-4-6--4-6-6-6-4-6--4-6-6-6-4-6--4-6-6-6-4-6--4-6-6-6-4-6--4-6-6-6-4-6-|
D-6-6-6-4-6--4-6-6-6-4-6--4-6-6-6-4-6--4-6-6-6-4-6--4-6-6-6-4-6--4-6-6-6-4-6-|
A----------------------------------------------------------------------------|
E----------------------------------------------------------------------------|

                                                             C#5
e-12--12-12-12--12\---12--12-12-12--12\---12--12-12-12--12\------|
H-12--12-12-12--12\---12--12-12-12--12\---12--12-12-12--12\------|
G-------------------------------------------------------------6--|
D-------------------------------------------------------------6--|
A-------------------------------------------------------------4--|
E----------------------------------------------------------------|



 Komentari:
Poslao :: Sat-Ok
Ocena 5

Pros: Kompletno i jasno za gitaru, plus aranžman saksofona za gitaru.

Cons: Nema
Poslao :: rocker
Bez lažne skromnosti, nisam ni očekivao manje :D
Poslao: rocker | Komentara: 2 | Glasova: 1 | Ocjena: 5 | Print