neverne bebe - hajdemo svi (ispravak)

Poslao: rocker | Komentara: 1 | Glasova: 1 | Ocjena: 5 | Print
Neverne Bebe - Hajdemo svi

by M.S.Rocker


Intro:

D5,  G5, A5


D5   G5     A5    D5  G5    A5
 Sve strane sveta  cela planeta
D5   G5      A5   D5  G5 A5
 Bas svi nam ne daju
D5     G5    A5   D5    G5   A5
 A tu, ispod srca  jos uvek kuca
D5  G5       A5   D5  G5 A5
 Ma nek' nas gledaju

        D5       G5  A5
Hajdemo svi  da pevamo
        D5       G5  A5
Hajdemo svi  da plesemo
        D5       G5  A5      D5  G5 A5
Hajdemo svi  da letimo kroz noc
        D5       G5  A5
Hajdemo svi  da pevamo
        D5       G5  A5
Hajdemo svi  da sanjamo
        D5        G5   A5  D5  G5 A5
Hajdemo svi  jos samo ovu noc


Da Bog nas cuva  od svih oluja
Ni to nam ne daju
Samo za tvoje oci  bas uvek sve cu moci
Ma samo nek' nas gledaju


Hajdemo svi  da pevamo
Hajdemo svi  da plesemo
Hajdemo svi  da letimo kroz noc
Hajdemo svi  da pevamo
Hajdemo svi  da sanjamo
Hajdemo svi  jos samo ovu noc


Solo:
(D5,  A5 x3
 F5,  G5, A5, D5)


e-10-10-10-10-9-9-9-9-------------------------|
H---------------------12-12-12-12-10-10-10-10-|
G---------------------------------------------|
D---------------------------------------------|\
A---------------------------------------------| \
E---------------------------------------------|  \
                                                  \
                                                   \
                                                    \
e-------------------------------------------------|  \
H-13-13-13-13-12-12-12-12-10-10-10-10-------------|   \ x3
G-------------------------------------12-12-12-12-|   /
D-------------------------------------------------|  /
A-------------------------------------------------| /
E-------------------------------------------------|



e-------------------------------------------------|
H-13-13-13-13-12-12-12-12-------------------------|
G-------------------------12-12-12-12-------------|
D-------------------------------------12-12-12-12-|
A-------------------------------------------------|
E-------------------------------------------------|


e-----------------------------------------|
H-13-13-13-13-12-12-12-12-10-10-10-10-10~-|
G-----------------------------------------|
D-----------------------------------------|
A-----------------------------------------|
E-----------------------------------------|


 Komentari:
Poslao :: Sat-Ok
Detaljno i jasno.
Poslao: rocker | Komentara: 1 | Glasova: 1 | Ocjena: 5 | Print