atomsko skloniste - olujni mornar (solo)

Poslao: rocker | Komentara: 4 | Glasova: 3 | Ocjena: 5 | Print
Atomsko Skloniste - Olujni mornar (solo)

by M.S.Rocker


e--------------------------------------------|
H----------------------/6-5--8-8-8-8-8-10-8--|
G-------------------5--/5-5--7-7-7-7-7-7--7--|
D------2h4p2---2-4--5------------------------|
A--0-4-------4-------------------------------|
E--------------------------------------------|

e----------------------------|
H--8-8-8-8-8-10-8-------3----|
G--7-7-7-7-7-7--7--7----2-5--|
D------------------7-7----5--|
A------------------5-7-------|
E----------------------------|


e--------------------------------------------|
H----------------------/6-5--8-8-8-8-8-10-8--|
G-------------------5--/5-5--7-7-7-7-7-7--7--|
D------2h4p2---2-4--5------------------------|
A--0-4-------4-------------------------------|
E--------------------------------------------|

e---------------------------------------|
H--8-8-8-8-8-10-8-----------------------|
G--7-7-7-7-7-7--7--7--------------------|
D------------------7-7------------------|
A------------------5-7---------3--------|
E------------------------0-3-5---5-3-0--|


Pratnja kao u strofama:

A5, G5, C5, G5, A5, D5, C5
 Komentari:
Poslao :: rocker
Videh da nema u arhivi ove solo deonice...
Poslao :: Sat-Ok
5
Poslao :: jeremija
Dao bih 10 za takvo perfektno skidanje solaze, al' ces se morati zadovoljiti peticom! :D
Poslao :: rocker
Zadovoljicu se... Peticom... Skroman sam :)
Poslao: rocker | Komentara: 4 | Glasova: 3 | Ocjena: 5 | Print