elektricni orgazam - fleke

Poslao: Sat-Ok | Komentara: 0 | Glasova: 0 | Ocjena: x | Print
Izvodjac: Elektricni Orgazam
Pesma: Fleke
Album: Elektricni Orgazam I
Transkripcija: Sat-Ok, cicirar@yahoo.com



Uvod

   A      C#     A      C#
   TP     TP     TP     TP TP TP
e|-5------9------5------16-17-16-|
B|-------------------------------|
G|-------------------------------|
D|-------------------------------|
A|-------------------------------|
E|-------------------------------|
(TP-Tremolo, u originalu mandolina sintisajzer)


A             C#
Morska plaza, gluva noc
A          C#
duso draga ti i ja
A     C#      A             C#
ptice pevaju, talasi nas ljuljuskaju
A     C#
pesak ispod nas
A    C#
nebo iznad nas


Rif

  A                  C#                A                  C#
e|----------------12----------------------------------------12--12--12---|
B|-14-12-14-12-14-----12-12-12-12-12-10--14-12-14-12-14-12--12--12--12---|
G|--------------------11-11-11-11-11-9-----------------------------------|2x
D|-----------------------------------------------------------------------|
A|-----------------------------------------------------------------------|
E|-----------------------------------------------------------------------|

  A          C#     A     C#
A ti si duso draga, klala svinju
A      C#       A          C#
krv je prskala, nas na sve strane
A                 C#
pazi na moju belu kosulju,
A                 C#
pazi na moju belu kosulju.


Refren

C   G       E
ostaju_____ fleke, fleke,

fleke, fleke, fleke, fleke,

fleke, fleke, fleke, fleke.

C   G       E
ostaju_____ fleke, fleke,

fleke, fleke, fleke, fleke,
                            A
fleke, fleke, fleke, fleke, fle.


/A  C#/A  C#/


A                 C#
Sta sam mogao da uradim
     A         C#
osim onog sto uradih
A           C#
ljutito sam ustao
  A      C#
i zauvek otisao
  C           C#      A C#
i lepo sam ti reko'  Pazi!!!_______


Refren

                               A
...fleke, fleke, fleke, fleke, fle.



Melodija (Varijacije su u strofama)

Rege Ritam
   A              C#          A          C#
e|---------------------------------------------------------------------------|
B|----------------------2----------------2--2-2------------------------------|
G|-2--2---2--2----1--1--------2-2--2--2--------------------------------------|
D|---------------------------------------------------------------------------|
A|---------------------------------------------------------------------------|
E|---------------------------------------------------------------------------|
   Morska plaza,  gluva noc   duso draga ti i ja

   A     C#      A             C#
e|---------------------------------------------------------------------------|
B|-------2-2-2-----------------2--1--2--------2-2---2---------2-2---2--------|
G|-2--2----------2-2-2--2---2-----------2-2--------------2-2-----------------|
D|---------------------------------------------------------------------------|
A|---------------------------------------------------------------------------|
E|---------------------------------------------------------------------------|
   ptice pevaju, talasi nas ljuljuskaju pesak ispod nas  nebo iznad nas



Refren

Brzi Pank Ritam

   C  G        E
e|-------------5-5----5-5----5-5----5-5----5-5----5-5------------------------|
B|---------------------------------------------------------------------------|
G|-5-5-----------------------------------------------------------------------|
D|-----5---------------------------------------------------------------------|
A|---------------------------------------------------------------------------|
E|---------------------------------------------------------------------------|
   Ostaju_____ fleke, fleke, fleke, fleke, fleke, fleke,


                               A
e|-5-5----5-5----5-5----5-5----5-------|
B|-------------------------------------|
G|-------------------------------------|
D|-------------------------------------|
A|-------------------------------------|
E|-------------------------------------|
   fleke, fleke, fleke, fleke, fle.
Poslao: Sat-Ok | Komentara: 0 | Glasova: 0 | Ocjena: x | Print