s vremena na vreme - suncana strana ulice

Poslao: rocker | Komentara: 0 | Glasova: 1 | Ocjena: 5 | Print
S Vremena Na Vreme - Suncana strana ulice

by M.S.Rocker


Uvod i refren:

Figura 1
 Em        H aug     Gmaj      G -5
e-----3---|-----3---|-----3---|-----3---|
H-------0-|-------0-|-------0-|-------0-|
G---4-----|---4-----|---4-----|---4-----|
D-2-------|-1-------|-0-------|---------|
A---------|---------|---------|-4-------|
E---------|---------|---------|---------|

Figura 2
F#                Hm
---------2-------|---------2-------|
-------------2---|-------------3---|
-----3-----3---3-|-----4-----4---4-|
---4-------------|---4---4---------|
-------4---------|-2---------------|
-2---------------|-----------------|

Solo preko Figure 2:

e-7tr-6-7-9tr-10-9tr-7-|
H----------------------|
G----------------------|
D----------------------|
A----------------------|
E----------------------|

Prva strofa:
Hm
Na prozoru starih zaluzina
D          A     D
Sa cvecem u ramu kao na slici
Em                       Hm
Sto prodaje se u radnji staklara
F#                 Hm
U kuci od kamena u obicnoj luci

Refren:
(Svirati Figure 1 i 2)

Zivela je na suncanoj strani ulice


Druga strofa (svira se kao prva):

Na prozoru starih zaluzina
Sa dugim kanapom od kuce do kuce
Gde susilo se rublje suncem okupano
U kuci od kamena u obicnoj luci
Zivela je na suncanoj strani ulice


Treca strofa:
G                  F#m
U mirnoj noci stvorenoj od mora
Em                 Hm
U tihoj pesmi i buci hotela
G                   F#m
Stajala je na prozoru kuce
Em               F#
Gledajuci more, cekajuci nekog

Prelaz: D, A, D,
        D, A, F#

Na prozoru starih zaluzina
Bez cveca u ramu zatvorenim pustim
Sto ga niko otvoriti nece
U kuci od kamena u obicnoj luci
Zivela je na suncanoj strani ulice





Tablaturni prikaz (nacin razlaganja):


Prva strofa:
 Hm                Hm
e---------2-------|---------2-------|
H-------------3---|-------------3---|
G-----4-----4---4-|-----4-----4---4-|
D---4---4---------|---4---4---------|
A-2---------------|-2---------------|
E-----------------|-----------------|

 D       A       D
e-----2-|-----0-|---------2-------|
H-----3-|-----2-|-----3-------3---|
G---2---|-------|---2---2---2---2-|
D-0-----|---2---|-0---------------|
A-------|-0-----|-----------------|
E-------|-------|-----------------|

 Em                Hm
e---------7-------|---------2-------|
H-------------8---|-------------3---|
G-----9-----9---9-|-----4-----4---4-|
D---9---9---------|---4---4---------|
A-7---------------|-2---------------|
E-----------------|-----------------|

 F#                Hm
e---------2-------|---------2-------|
H-------------2---|-------------3---|
G-----3-----3---3-|-----4-----4---4-|
D---4-------------|---4---4---------|
A-------4---------|-2---------------|
E-2---------------|-----------------|


Treca strofa:
 G                 F#m
e---------3-------|---------2-------|
H-------------3---|-------------2---|
G-----4-----4---4-|-----2-----2---2-|
D---5-------------|---4-------------|
A-------5---------|-------4---------|
E-3---------------|-2---------------|

 Em                Hm
e---------0-------|---------2-------|
H-------------0---|-------------3---|
G-----0-----0---0-|-----4-----4---4-|
D---2-------------|---4---4---------|
A-------2---------|-2---------------|
E-0---------------|-----------------|

 G                 F#m
e---------3-------|---------2-------|
H-------------3---|-------------2---|
G-----4-----4---4-|-----2-----2---2-|
D---5-------------|---4-------------|
A-------5---------|-------4---------|
E-3---------------|-2---------------|

 Em                F#
e---------0-------|---------2--------2-|
H-------------0---|-------------2----2-|
G-----0-----0---0-|-----3-----3---3--3-|
D---2-------------|---4--------------4-|
A-------2---------|-------4----------4-|
E-0---------------|-2----------------2-|


Poslao: rocker | Komentara: 0 | Glasova: 1 | Ocjena: 5 | Print