azra - tanka crna linija (ver 2)

Poslao: Sat-Ok | Komentara: 2 | Glasova: 0 | Ocjena: x | Print
Izvodjac: Azra
Pesma: Tanka Crna Linija
Album: Filigranski Plocnici
Transkripcija: Sat-Ok, cicirar@yahoo.com





Rif 1

   G
E|----------------------------|-----------------------------|
B|----------------------------|-----------------------------|
G|----------------------------|-----------------------------|
D|--3-2-3-2-3-2--3-2-3-2------|--3-2-3-2-3-2--3-2-3-2-5v----|
A|----------------------3-p2--|-----------------------------|
E|-3-3-3-3------3-3-3-3-----3-|-3-3-3-3------3-3-3-3--------|

Gitara sa slajdom tokom  Rifa 1
    G
E|----------------------------|------------------------|
B|----------------------------|------------------------|
G|-/12---------------------\0-|-(0)--------------------|
D|-/12---------------------\0-|-(0)--------------------|
A|----------------------------|------------------------|
E|----------------------------|------------------------|




Melodija pesme prilagodjena za gitaru


   G                      C
E|-------------------------------------|
B|-------------------------------------|
G|---------------------------------3---|
D|-5--5-5-5--5--5-5-5-5--5-5-5-5-5-----|
A|-------------------------------------|
E|-------------------------------------|
   predstava je zavrsena slijedeci put

     G                       C
E|-------------------------------------|
B|-------------------------------------|
G|-------------------------------------|
D|-5-5-5-5--5-5--5-5--5-5---5-5--------|
A|------------------------------5------|
E|-------------------------------------|
   ne diraj moje lice ispod pepela

      G                     C
E|-------------------------------------|
B|-------------------------------------|
G|-4--4------------------------3--3----|
D|---------5--5---5-5-5-5--5-5---------|
A|-------------------------------------|
E|-------------------------------------|
   sa svim svojim biserima oko vrata


        A           D
E|---------------------------|
B|---------------------------|
G|-------2--2--2-2--h4-2-2---|
D|-5--5----------------------|
A|---------------------------|
E|---------------------------|
   ti si tanka crna linija


(Strofe 2 i 3 - melodija slicna)



Refren

     G   F         C                     G   F        A          D
e|-----------------------------------------------------------------------|
B|-----------------------------------------------------------------------|
G|-4-4-4-2--0--0---0-0--0-2---2b-2-0---4-4-4-2--0--0--2-2---2-2--4h-2-2--|2x
D|-----------------------------------------------------------------------|
A|-----------------------------------------------------------------------|
E|-----------------------------------------------------------------------|
   o o o da da da  lice ispod pepela   o o o da da da tanka crna linija


Rif 2

Let ring
  G                             G   F     A   D
E|----------------------------|-----------------------|
B|-3-2-0----------------------|-3-2-0-----------------|
G|-------2-0---2-0------------|-------2-0-2-2-s4-2----| 2x
D|-----------------3-2-0------|-----------------------|
A|----------------------------|-----------------------|
E|----------------------------|-----------------------|




predstava je zavrsena slijedeci put
ne diraj moje lice ispod pepela
sa svim svojim biserima oko vrata
ti si tanka crna linija

pusti neka vrijeme traje
zamisli da imam 78 godina
i namjestenu sobu s pogledom na sat
sva je proslost iza nas

lice ispod pepela
tanka crna linija

predstava je zavrsena slijedeci put
dosegni rukom glinenu figuricu
pravi razlog samurajskih filmova
tanku crnu liniju

treba li da znas kamo odlazim
izmisljajuci potrebu za promjenom
treba li da saznas sve sto osjecam
vrati se u ladicu

lice ispod pepela
tanka crna linija


 Komentari:
Poslao :: Jasmin
Pratim tvoj rad ( barem sto se Azre tice )..... Dobar si!
Poslao :: Sat-Ok
Hvala Jasmin
Poslao: Sat-Ok | Komentara: 2 | Glasova: 0 | Ocjena: x | Print