azra - ne reci mi dvaput (verzija 2)

Poslao: Sat-Ok | Komentara: 0 | Glasova: 2 | Ocjena: 5 | Print
Izvodjac: Azra
Pesma: Ne reci mi dvaput
Muzika i Tekst: Branimir Stulic
Transkripcija: Sat-Ok, cicirar@yahoo.com



Akordi:

    F6-9b  Dmaj7  Cmaj7  Am7  Eb   F    D   C   Gm  Cm  B  Csus2
E|--2------2------0------0--------------2---0---3---3------0-----|
B|--3------2------0------1----8----10---3---1---3---4---3--3-----|
G|--2------2------0------0----8----10---2---0---3---5---3--0-----|
D|--3------0------2------2----8----10---0---2---5---5---3--2-----|
A|----------------3------0----6----8--------3---5---3---1--3-----|
E|----------------------------------------------3----------------|




Uvod

Rif

   D   F6-9b   D   F6-9b   D   F6-9b   D   F6-9b

E|---2---2-------2---2-------2---2-------2---2-------------------|
B|---------3-----------3-----------3-----------3-----------------|
G|-----------2-----------2-----------2-----------2---------------| 2x
D|-4---3-------4---3-------4---3-------4---3---------------------|
A|---------------------------------------------------------------|
E|---------------------------------------------------------------|




             D              Gm
Strofa 1       Ne reci mi dvaput,
             D            Cm
               Ne reci mi nikad.
             D              Eb          F     D  Rif 2x
               Generalske zvijezde za njenu ljubav.

             D             Gm
Strofa 2       Medalja na cesti,
             D         Cm
               Samotna sjena,
             D            Eb         F   D Rif 2x
               Izvezene pruge iznad mog ramena.


             B             Am7
Refren 1       Kanalom sto protice,
             Gm          D Rif 2x
               Iz srca neona.
                          Eb     F         D Rif 2x
             Stigla je veceras kulisa od znoja
             B          Am7
               Dolje na svijetlosti
             Gm        D Rif 2x
               Zvuk aviona
                       Eb         F        D Dmaj7 C Cmaj7
             Hladno se drzala moja hotelska soba,
                      D Dmaj7 C Cmaj7
             Hotelska soba,
                      D Dmaj7 C Cmaj7  A
             Hotelska soba._______


Solo         /D Csus2/D Csus2/D  /D   /

             /D Csus2/D Csus2/B  /B   /

             /D Csus2/D Csus2/D  /D   /

             /D Csus2/D Csus2/

             B             Am7
Refren 2       Kanalom sto protice,
             Gm          D Rif 2x
               Iz srca neona.
                          Eb     F         D Rif 2x
             Stigla je veceras kulisa od znoja
             B          Am7
               Dolje na svijetlosti
             Gm        D Rif 2x
               Zvuk aviona
                       Eb         F        D Dmaj7 C Cmaj7
             Hladno se drzala moja hotelska soba,
                      D Dmaj7 C Cmaj7
             Hotelska soba,
                      D Dmaj7 C Cmaj7  D
             Hotelska soba._______


Poslao: Sat-Ok | Komentara: 0 | Glasova: 2 | Ocjena: 5 | Print