azra - 041 (verzija 3)

Poslao: Sat-Ok | Komentara: 0 | Glasova: 2 | Ocjena: 5 | Print
Izvodjac: Azra
Pesma: 041
Muzika i Tekst: Branimir Stulic
Transkripcija: Lazar Jevtic, cicirar@yahoo.com

Dodao bih na pocetku da vinjeta odaje utisak neke vrste
svecanog otvaranja (sto i jeste), gotovo kao da je
himna u pitanju, pa je sa tim osecajima i svirajte. Ova vinjeta je
odlican uvod u jedan od najboljih Ex-Yu albuma.
Ipak, zbog bare hvatova ne verujem da ce apsolutni pocetnici
moci odmah da je sviraju, ali uz vezbu i obavezno preslusavanje
pesme jednog dana ce dostici savrsenstvo.
U pesmi se inace koriste dve gitare, akusticna i elektricna.
Razlike su u sviranju arpedja. Ja sam ovde odradio elektricnu, i dodao par
tonova na samom pocetku koje inace svira akusticna da bi se dobila
celina.
Kao dodatak kojeg nema u pesmi uradio sam melodiju pesme
u tablaturama za gitaru.


-Uvod-

E|--------------------------------------|
B|-----p-a-r--t-a-k-t-o-v-a--b-u-b-a-nj-|
G|---------b-e-z---g-i-t-a-r-a----------|
D|--------------------------------------|
A|--------------------------------------|
E|--------------------------------------|

Elektricna Gitara

      Am        Am7    Amb6   Am
E|----5-------5-5----5-5----5-5------|
B|----5-------5-8----8-6----6-5------|
G|----5-------5-5----5-5----5-5------|
D|----7-------7-7----7-7----7-7------|
A|-----------------------------------|
E|-----------------------------------|


-Strofa 1-

        Am               F                Dm               Am
E|--------------0-----------------1---------------5----------------0-----------|
B|------------1---1-------------1---1-----------6---6------------1---1---------|
G|----------2-------2---------2-------2-------7-------7--------2-------2-------|
D|--------2-----------2-----3-----------3---7-----------7----2-----------2-----|
A|------0---------------------------------5----------------0-------------------|
E|-----------------------1-----------------------------------------------------|
   Kada Zagreb izranja iz sna,      Cekaju ga, konduktera dva

        H                 E
E|---------------7-----------------0--------|
B|-------------7---7-------------0---0------|
G|-----------8-------8---------1-------1----|
D|---------9-----------9-----2-----------2--|
A|------------------------------------------|
E|------7-----------------0-----------------|

Da ih poveze,       na remizu.

    F       G       Am           E7
E|--1-------3-------0---0----------------0-------|
B|--1-------3-------1-----1------------3---3-----|
G|--2-------4-------2-------2--------1-------1---|
D|--3-------5-------2--------------2-----------2-|
A|--3-------5-------0----------------------------|
E|--1-------3-------0------------0---------------|

 Da razbiju lozom krizu.



-Strofa 2-

        Am               F                Dm               Am
E|--------------0-----------------1---------------5----------------0-----------|
B|------------1---1-------------1---1-----------6---6------------1---1---------|
G|----------2-------2---------2-------2-------7-------7--------2-------2-------|
D|--------2-----------2-----3-----------3---7-----------7----2-----------2-----|
A|------0---------------------------------5----------------0-------------------|
E|-----------------------1-----------------------------------------------------|
  Kada Zagreb izranja iz sna,       Nigdje nema         frikova.

        H                 E
E|---------------7-----------------0--------|
B|-------------7---7-------------0---0------|
G|-----------8-------8---------1-------1----|
D|---------9-----------9-----2-----------2--|
A|------------------------------------------|
E|------7-----------------0-----------------|
  Nema vise,         frikova.          Kada

    F      G          Am        F     G          Am
E|--1------3----------0---------1-----3----------0---------|
B|--1------3----------1---------1-----3----------1---------|
G|--2------4----------2---------2-----4----------2---------|
D|--3------5----------2---------3-----5----------2---------|
A|--3------5----------0---------3-----5----------0---------|
E|--1------3--------------------1-----3--------------------|
   Zagreb izranja iz sna, Kada Zagreb izranja iz sna.


E|---------------------------------------------------------------------|
B|---------------------------b-u-b-nj-e-v-i----------------------------|
G|-------U-b-r-z-a-v-a-nj-e--r-i-t-m-a--i--k-r-a-j--p-e-s-m-e----------|
D|---------------------------------------------------------------------|
A|---------------------------------------------------------------------|
E|---------------------------------------------------------------------|




Melodija pesme prilagodjena za gitaru

        Am                 F             Dm                Am
E|---------------------------------------------------------------|
B|---------------------------------------------------------------|
G|---------------------------------------------------------------|
D|-2-2--2-2----2-2-2---2--3---------3-2-0--0---0--0--0----2------|
A|-----------------------------------------------------3---------|
E|---------------------------------------------------------------|
   Kada Zagreb izranja iz sna,       Cekaju ga, konduktera dva

             H                E         F       G    Am       E7
E|---------------------------------------------------------------|
B|---------------------0-----------------------------------------|
G|------------------------2-1-1----1--2-0-----0-0----------------|
D|----------------------------------------3---------2-2----------|
A|-3--3--3-2-2---------------------------------------------------|
E|---------------------------------------------------------------|
   Da ih poveze,        na remizu.   Da razbiju lozom krizu.


        Am                 F             Dm                Am
E|---------------------------------------------------------------|
B|---------------------------------------------------------------|
G|---------------------------------------------------------------|
D|-2-2--2-2----2-2-2---2--3---------3-2-0--0-0------0----2-------|
A|-----------------------------------------------------3---------|
E|---------------------------------------------------------------|
   Kada Zagreb izranja iz sna,       Nigdje nema     frikova


          H                 E                  F      G          Am
E|-------------------------------------------------------------------|
B|--------------------0----------------------------------------------|
G|-----------------------2-1------------1-1--2-2----0-0-0---0--2-----|
D|-------------------------------------------------------------------|
A|-3-3--2-2----------------------------------------------------------|
E|-------------------------------------------------------------------|
   Nema vise,          frikova.           Kada Zagreb izranja iz sna,

        F      G          Am
E|-----------------------------|
B|------1-1----3-1-0-----------|
G|-2-2-----------------0--2----|
D|-----------------------------|
A|-----------------------------|
E|-----------------------------|
   Kada Zagreb izranja iz sna

Poslao: Sat-Ok | Komentara: 0 | Glasova: 2 | Ocjena: 5 | Print