hladno pivo - ezoterija (uvod + solo)

Poslao: keko13 | Komentara: 1 | Glasova: 1 | Ocjena: 5 | Print
   ###                                       ###
   #   Hladno Pivo - Ezoterija (uvod + solo)   #
   #                                           #
   #   © by: keko13 @ 2akordi.net              #
   ###                                       ###


:: UVOD + STROFE

e|-------------------------|-----------------------|-------------------|
B|-------------------------|---------------5-5--5--|--7--7-5-7-5-------|
G|--2-2-4-6--6-4-6-4-2--2--|--2-4-6--6-4-6---------|-------------6--6--|
D|-------------------------|-----------------------|-------------------|
A|--0-0-0-0--0-0-0-0-0--0--|--0-0-0--0-0-0-0-0--0--|--0--0-0-0-0-0--0--|
E|-------------------------|-----------------------|-------------------|

e|-------------------------------|--5-5--5-5--5-5--5-5-5--|
B|--------5-5--5---------5-5--5--|------------------------|
G|--4-4-4----------6-6-6---------|------------------------|
D|-------------------------------|------------------------|
A|--0-0-0-0-0--0---0-0-0-0-0--0--|--0-0--0-0--0-0--0-0-0--|
E|-------------------------------|------------------------|
                                  \__________x2__________/



:: REFREN

A D F#m D



:: SOLO 1 (1:34 - 1:48)

e|---------------------------------|-----------------------------------------|
B|--12-12-12-12-10-10-10-----------|-----------------------------------------|
G|------------------------11--9-9--|-----9-11-9-9-----9-11-9-9-----9-11-9-9--|
D|---------------------------------|--11-----------11-----------11-----------|
A|---------------------------------|-----------------------------------------|
E|---------------------------------|-----------------------------------------|

e|-------------------------------------|---------------------------------------|
B|--10-10-12-10-10--10-10-13-13-12-12--|---------------------------------------|
G|-------------------------------------|-----9-11-9-9-----9-11-9-9-------------|
D|-------------------------------------|--11-----------11-----------11-9-------|
A|-------------------------------------|---------------------------------12~~--|
E|-------------------------------------|---------------------------------------|



:: SOLO 2 (2:56 - 4:24)

e|--12-12-9-9--12-12-9-9--|--12-12-14-14-14--14-14-15-15-14-14--|
B|------------------------|-------------------------------------|
G|------------------------|-------------------------------------|
D|------------------------|-------------------------------------|
A|------------------------|-------------------------------------|
E|------------------------|-------------------------------------|
  \__________X2__________/

e|--12-12-9-9--------9-9-9--|--9-9-----------------------------------------------|
B|-------------12-12--------|-------12-12--10-10---------------------------------|
G|--------------------------|---------------------11-11--9-9---------------------|
D|--------------------------|---------------------------------11-11--9-9---------|
A|--------------------------|---------------------------------------------12-12--|
E|--------------------------|----------------------------------------------------|

e|----------------------------|----------------------------------|
B|----------------------------|----------------------------------|
G|----------------------------|----------------------------------|
D|--12-12--------12-12--------|--12-12--11-11--9-9---------------|
A|--------12-12--------12-12--|-------------------12-12--11--12--|
E|----------------------------|----------------------------------|

e|----------------|----------9--10--|----------------|----------------12--12--|
B|---------9--10--|--10--12---------|---------9--10--|----10--10--10----------|
G|--9--11---------|-----------------|--9--11---------|------------------------|
D|----------------|-----------------|----------------|------------------------|
A|----------------|-----------------|----------------|--12--12--12--12--12----|
E|----------------|-----------------|----------------|------------------------|
  \______x2______/                                    \__________x8__________/

e|--12-12-9-9--12-12-9-9--|--12-12-14-14-14--12\10-12/14--|
B|------------------------|-------------------------------|
G|------------------------|-------------------------------|
D|------------------------|-------------------------------|
A|------------------------|-------------------------------|
E|------------------------|-------------------------------|
  \__________x2__________/

e|--12-12---------------------|------------------------|----------------------|
B|--------14-14--12-12-14-14--|--14-14-14-12-12--------|--14-12-----14-12-----|
G|----------------------------|-----------------14-14--|--------14--------14--|
D|----------------------------|------------------------|----------------------|
A|----------------------------|------------------------|----------------------|
E|----------------------------|------------------------|----------------------|
                               \__________x2__________/

e|------------------------|----------------|------------------------------|
B|--14-12----12-14-12-----|----------------|------------------------------|
G|--------14----------14--|----------------|------------------------------|
D|------------------------|--12-12---------|--12-12--11-11--9-9--7-7-6-7--|
A|------------------------|---------12-12--|------------------------------|
E|------------------------|----------------|------------------------------|
                           \______x2______/


 Komentari:
Poslao :: keko13
Za malo naprednije lagana stvar za odsvirati, za potpuno shvaćanje ritma, poslušati pjesmu.
Lyrics nisam stavljao zato što bi zauzelo još više prostora. Surf_freijev rad ima ritmički dio i lyrics.
Uživajte! ;)
Poslao: keko13 | Komentara: 1 | Glasova: 1 | Ocjena: 5 | Print