petar graso & arsen dedic - sad te se samo rijetko sjetim

Poslao: Johnny035 | Komentara: 1 | Glasova: 4 | Ocjena: 5 | Print
Petar Graso & Arsen Dedic - Sad te se samo rijetko sjetim

Uvod: fm

gm7/5-          C7           fm
Uvijek tako pocinje polja cvatu...
gm7/5-          C7            fm
Cuvaj tamne bisere na svom vratu...

        C7                     fm
Prva si rekla ti: ’’S tobom cu stajati
       bm     Eb7   Ab
I kada bogovi dignu glas.’’
        C7                  fm
Prva si rekla ti: ’’To mora trajati.’’
       gm7/5-    C     Dbmaj7 Eb Fm
Jednom davno smo imali nas...

Ref:
F7        bm   bm7     Eb7
Sad te se samo rijetko sjetim,
        Ab    gm7/5-  fm
Prolaze dani, vrijeme leti.
        gm7/5-     C7               fm C7 fm
Kako se poruse sni, a isto smo sanjali
F7        bm   bm7     Eb7
Sad te se samo rijetko sjetim.
           Ab    gm7/5-  fm
Gdje li si zimi, gdje si ljeti?
        gm7/5-    C     Dbmaj7  Eb fm
Vec je hladno, ruke mi zgrij!

Prelaz: Dbmaj7 Eb fm

gm7/5-           C7         fm
Uvijek sve zavrsava blize bolu...
gm7/5-         C7            fm
Mrvice od ljubavi na tvom stolu...

          C7                  fm
Jednom si rekla ti: ’’Zbogom. Oprosti mi.’’
         bm      Eb7    Ab
I sve je nestalo k’o zacas.
          C7                     fm
Jednom si rekla ti: ’’Ne znam se kajati.’’
       gm7/5-    C     Dbmaj7 Eb Fm
Jednom davno smo imali nas...

Ref:
F7        bm   bm7     Eb7
Sad te se samo rijetko sjetim,
        Ab    gm7/5-  fm
Prolaze dani, vrijeme leti.
        gm7/5-     C7               fm C7 fm F7
Kako se poruse sni, a isto smo sanjali
          bm   bm7     Eb7
Sad te se samo rijetko sjetim.
           Ab    gm7/5-  fm
Gdje li si zimi, gdje si ljeti?
        gm7/5-    C     Dbmaj7  Eb fm
Vec je hladno, ruke mi zgrij!
               Dbmaj7     Eb     fm
Vec je hladno, moje slabe ruke - zgrij!

Solo:
   fm      C7              fm                bm      Eb7          Ab
E|---------------|------------------|-8------------|-11-11-9-9-11-8--|
H|-9-8---------8-|-11-9-8----8-9-11-|---11-9-11----|-----------------|
G|-----10-9-10---|--------10--------|--------------|-----------------|
D|---------------|------------------|--------------|-----------------|
A|---------------|------------------|--------------|-----------------|
E|---------------|------------------|--------------|-----------------|

   fm      C7              fm                 gm7/5- C7    fm
E|---------------|------------------|-8------------|-------------|
H|-9-8---------8-|-11-9-8----8-9-11-|---11-9-11----|----8--------|
G|-----10-9-10---|--------10--------|-----------10-|-9-----10----|
D|---------------|------------------|--------------|-------------|
A|---------------|------------------|--------------|-------------|
E|---------------|------------------|--------------|-------------|

   fm      C7              fm                bm      Eb7    Ab
E|---------------|------------------|-8------------|-11--9--8----|
H|-9-8---------8-|-11-9-8----8-9-11-|---11-9-11----|-------------|
G|-----10-9-10---|--------10--------|--------------|-------------|
D|---------------|------------------|--------------|-------------|
A|---------------|------------------|--------------|-------------|
E|---------------|------------------|--------------|-------------|

   fm      C7              fm                 gm7/5-  C7    fm
E|---------------|------------------||-8------------|-----------|
H|-9-8---------8-|-11-9-8----8-9-11-||---11-9-11----|----8------|
G|-----10-9-10---|--------10--------||-----------10-|-9-----10--|
D|---------------|------------------||--------------|-----------|
A|---------------|------------------||--------------|-----------|
E|---------------|------------------||--------------|-----------|

   Dbmaj7       Eb        fm                  F7
                          ______________
E|-----------|----------|-----------|-----------|
H|-------8-9-|------8-9-|-----------|-----------|
G|----10-----|----9-----|-10--------|-10--------|
D|-10--------|-10-------|-----------|-----------|
A|-----------|----------|-----------|-----------|
E|-----------|----------|-----------|-----------|

Ref:
          bm   bm7     Eb7
Sad te se samo rijetko sjetim,
        Ab    gm7/5-  fm
Prolaze dani, vrijeme leti.
        gm7/5-     C7               fm C7 fm F7
Kako se poruse sni, a isto smo sanjali
          bm   bm7     Eb7
Sad te se samo rijetko sjetim.
           Ab    gm7/5-  fm
Gdje li si zimi, gdje si ljeti?
        gm7/5-    C     Dbmaj7  Eb fm
Vec je hladno, ruke mi zgrij!

        gm7/5-    C     Dbmaj7  Eb fm
Vec je hladno, ruke mi zgrij!

gm7/5-           C7         fm
Uvijek sve zavrsava blize bolu...
C7    fm
Blize bolu...

 Komentari:
Poslao :: izgubljen
Svaka cast! :) Trud iznag granice potrebnog za najvisu ocenu.
Ajde budi malo vise aktivan, a ne samo da rijetko sretnemo i da se rijetno sjetimo tvojih radova. :)
Poslao: Johnny035 | Komentara: 1 | Glasova: 4 | Ocjena: 5 | Print