apsolutno romanticno - voli me ili ostavi

Poslao: lector | Komentara: 0 | Glasova: 0 | Ocjena: x | Print
       Apsolutno romanticno
      -Voli me ili me ostavi-


Uvod

   Dm                        Bb
E||--5-5--5------------5-----5-5--5----------------------|
B||--6-6--6-8--6---8---6-----6-6--6-8--6---8h10-8-6-8-6--|
G||---------9--7---9----------------9--7---9-10-9-7-9-7--|
D||------------------------------------------------------|
A||------------------------------------------------------|
E||------------------------------------------------------|

   Gm                                   A7
E||--5-5--5--------------5----6----5-------|
B||--6-6--6-8--6----8----6----8----6----8--|
G||---------9--7----9-------------------9--|
D||----------------------------------------|
A||----------------------------------------|
E||----------------------------------------|

   A7                                                Dm
E||--------5------------------------5-------------------||
B||--8--8--6-8-6--8-6---5-----5--8--6--6--8h10h8-5---6--||
G||--9--9----9-7--9-7---6--6--6--9-----7--9-10-9-6---7--|| 2x
D||------------------------7----------------------------||
A||-----------------------------------------------------||
E||-----------------------------------------------------||




Strofa>

Dm             Bb    G7
Voli me ili me ostavi,
C                      Cm   D7
necu da mi zalud vreme prolazi,
Gm                D#
voli me, grli me, ljubi me,
A7                   Dm A7
ilí zauvek prekinimo sve.


Voli me ili me ostavi,
i onako vreme brzo prolazi,
voli me, grli me, ljubi me,
A7                   Dm C
ilí zauvek prekinimo sve.

Ref>

F         Bbm       F
Moje srce nece vise cekati,
F        D7    Gm
ono mora nekog voleti,
Gm        A7        Dm7   Dm6
moje srce nece vise patiti,
Bb7         E7        A7
ilí me voli ilí me ostavi.

Voli me ili me ostavi,
dosta mi je ove neizvesnosti,
voli me, grli me, ljubi me,
ilí zauvek prekinimo sve.



Solo

   Dm                           Bb         G7
E||------------------------------------------------------|
B||--6-5--6--5--6--5--6-5--6----6-5--6--5--6--5--6-5--6--|
G||--7-5--7--5--7--5--7-5--7----7-5--7--5--7--5--7-5--7--|
D||------------------------------------------------------|
A||------------------------------------------------------|
E||------------------------------------------------------|

   C                            F           D7
E||----------------------------------------|
B||--5-3--5--3--5--3--5-3--5----3h5h3------|
G||--5-3--5--3--5--3--5-3--5----3-5-3-5-5--|
D||-----------------------------------7-7--|
A||----------------------------------------|
E||----------------------------------------|

   Gm                                   D#
E||-------------------------------------------------------10------------|
B||--11-10--11--10--11--10--11-10--11---11-10--11--10--11-11-11-10--11--|
G||--12-10--12--10--12--10--12-10--12---12-10--12--10--12----12-10--12--|
D||---------------------------------------------------------------------|
A||---------------------------------------------------------------------|
E||---------------------------------------------------------------------|

   A7                                            Dm
E||--9------9-------9h-10h9------------------------------------||
B||--10-11--10--11--10-11-10-11--10-8h10h8-------8h10h8--------||
G||-----12------12-----------12--10-9-10-9-10----9-10-9-10-10--|| 2x
D||----------------------------------------12-----------12-12--||
A||------------------------------------------------------------||
E||------------------------------------------------------------||






Poslao: lector | Komentara: 0 | Glasova: 0 | Ocjena: x | Print